Oops, an error
Loading. Please wait.

Floral And Fading tab

version 6
version 6

Whole song

Interactive

91 views 3 this week
no commentswrite comment
1 2 3 4 5
3 more votes to show rating
add to favorites
×
Save as Personal and add changes to this tab that will be seen only by you. Learn more ›
×
You can save this tab as Personal to edit and correct it or add notes. All changes will be seen only by you. Learn more »
launch autoscroll
font size
0
reset
how to read this tab
guitar tuner
edit
Autoscroll
slow
fast
+/-
esc
set tempo
stop
About this tab version
Tabbed in Drop B instead of Drop C#/Drop D. Was this info helpful? Yes No
This specific tab tuning was based off the interview (https://youtu.be/8ty3CVJhsIQ around 6:15) which
confirms the tuning of this tab.

[Intro]
(If you want to do the very first note, start a bar on the third fret then slide up, then down.)
(Guitar 1)
C#|-------|-------------|-------|-------------|-------|--------------|-------|---------------|
G#|-------|-------------|-------|-------------|-------|--------------|-------|---------------|
E |-------|-10-9--------|-------|-10-9--------|-------|-12-9---------|-------|-12-9----------|
B |-----3-|--------10---|-----3-|--------10---|-----7-|---------11---|-----7-|---------11----|
F#|---3---|------7----8-|---3---|------7----8-|---7---|------12---12-|---7---|------12----12-|
B |-3-----|-------------|-3-----|-------------|-7-----|--------------|-7-----|---------------|

(Guitar 2)
C#|---------------------------------|---------------------------------|
G#|---------------------------------|---------------------------------|
E |---------------------------------|---------------------------------|
B |-3-3-3-3-3-3-3-3-3-3-3-3-3-3-3-3-|-5-5-5-5-5-5-5-5-5-5-5-5-5-5-5-5-|
F#|-3-3-3-3-3-3-3-3-3-3-3-3-3-3-3-3-|-5-5-5-5-5-5-5-5-5-5-5-5-5-5-5-5-|
B |-3-3-3-3-3-3-3-3-3-3-3-3-3-3-3-3-|-5-5-5-5-5-5-5-5-5-5-5-5-5-5-5-5-|
    ^ - - - - - - - - - - - - - -  PM - - - - - - - - - - - - - - - ^

[Verse]
(Bass plays for a little while)

"Painful lust, two aching guts.."

C#|-------|-------------|-------|-------------|-------|--------------|-------|---------------|
G#|-------|-------------|-------|-------------|-------|--------------|-------|---------------|
E |-------|-10-9--------|-------|-10-9--------|-------|-12-9---------|-------|-12-9----------|
B |-----3-|--------10---|-----3-|--------10---|-----7-|---------11---|-----7-|---------11----|
F#|---3---|------7----8-|---3---|------7----8-|---7---|------12---12-|---7---|------12----12-|
B |-3-----|-------------|-3-----|-------------|-7-----|--------------|-7-----|---------------|

C#|-------|-------------|-------|-----------------|-------|----------|-------|----------|
G#|-------|-------------|-------|-10--------------|-------|----------|-------|----------|
E |-------|----------10-|-------|----12-----------|-------|-9-7------|-------|-9-7------|
B |-----8-|-10-12p10----|-----8-|-----------10----|-----3-|-------10-|-----3-|-------10-|
F#|---8---|-------------|---8---|--------12----12-|---3---|-----7----|---3---|-----7----|
B |-8-----|-------------|-8-----|-----------------|-3-----|----------|-3-----|----------|

(On the first half of the riff, starting at the 8th fret, if you don't like the way it
 sounds then you can just play the second half twice as they do live.)

[Chorus]

"You say you wanna chase the moon like fire..."

C#|---------|---------|-------|-----------|
G#|---------|---------|-------|-----------|
E |---------|---------|-------|-----------|
B |-----3---|-----2---|-------|---8-8-7---| (x2)
F#|-5-5---5-|-3-3---3-|-------|-8-------8-|
B |---------|---------|-8-8-8-|-----------|

C#|---------|---------|---------|---------|-----------|-----------|
G#|---------|---------|---------|---------|-----------|-----------|
E |---------|---------|---------|---------|-----------|-----------|
B |-----3---|-----2---|---------|---------|-----------|-----------|
F#|-5-5---5-|-3-3---3-|-6-6-6-6-|-6-6-6-6-|-3-3-3-3-3-|-3-3-3-3-3-|
B |---------|---------|---------|---------|-----------|-----------|

[Pre-Verse]
(Guitar 1)
C#|-------|-------------|-------|-------------|
G#|-------|-------------|-------|-------------|
E |-------|-10-9--------|-------|-10-9--------|
B |-----3-|--------10---|-----3-|--------10---|
F#|---3---|------7----9-|---3---|------7----9-|
B |-3-----|-------------|-3-----|-------------|

(Guitar 2)
C#|---------------------------------|
G#|---------------------------------|
E |---------------------------------|
B |-3-3-3-3-3-3-3-3-3-3-3-3-3-3-3-3-|
F#|-3-3-3-3-3-3-3-3-3-3-3-3-3-3-3-3-|
B |-3-3-3-3-3-3-3-3-3-3-3-3-3-3-3-3-|
   ^- - - - - - - PM - - - - - - - ^

[Verse]
"I wanht devil horns..."

C#|-------------------------------------|-------|-------------------------|
G#|----11----11----11----11----11----11-|-11-10-|-8---8---8---8---8---8---|
E |-11----11----11----11----11----11----|-------|---9---9---9---9---9---9-|
B |-------------------------------------|-------|-------------------------|
F#|-------------------------------------|-------|-------------------------|
B |-------------------------------------|-------|-------------------------|

C#|-------------|--------------|-----------|------------|
G#|----------10-|--------------|-----------|------------|
E |-9-10-12-----|--------------|-----10-12-|-17~-15-14~-|
B |-------------|-8--8--8--8-8-|-/12-------|------------|
F#|-------------|-8--8-----8-8-|-----------|------------|
B |-------------|-8--8-----8-8-|-----------|------------|

[Chorus]

"And now you wanna chase the moon like fire..."

C#|---------|---------|-------|-----------|
G#|---------|---------|-------|-----------|
E |---------|---------|-------|-----------|
B |-----3---|-----2---|-------|---8-8-7---| (x2)
F#|-5-5---5-|-3-3---3-|-------|-8-------8-|
B |---------|---------|-8-8-8-|-----------|

C#|---------|---------|---------|---------|-----------|-----------|
G#|---------|---------|---------|---------|-----------|-----------|
E |---------|---------|---------|---------|-----------|-----------|
B |-----3---|-----2---|---------|---------|-----------|-----------|
F#|-5-5---5-|-3-3---3-|-6-6-6-6-|-6-6-6-6-|-3-3-3-3-3-|-3-3-3-3-3-|
B |---------|---------|---------|---------|-----------|-----------|

"Tony!..."

(Tony's Guitar Solo) (N = tremolo) (Tremolo is prefered than just picking regularly.)

C#|-------------------------------|---------|---------|---------|----------|---------|---------|
G#|-------------------------------|---------|---------|---------|----------|---------|---------|
E |-------------------------------|---------|---------|---------|----------|---------|---------|
B |---------------10(N)-8(N)-7(N)-|-5-5-5-5-|---------|---------|----------|---------|---------|
F#|----/7(N)-8(N)-----------------|---------|-7-7-7-7-|-3-3-3-3-|-/7-7-7-7-|-5-5-5-5-|-3-3-3-3-|
B |-3-----------------------------|---------|---------|---------|----------|---------|---------|

C#|------------------------------|-------------|-------------|-------------------------|
G#|------------------------------|-------------|-------------|-------------------------|
E |------------------------------|-------------|-------------|-------------------------|
B |--------------10(N)-8(N)-7(N)-|-------------|-------------|-------------------------|
F#|---/7(N)-8(N)-----------------|-10-10-10-10-|-12-12-12-12-|-10-10-10-10-10-10-10-10-|
B |-3----------------------------|-------------|-------------|-------------------------|

[After the solo]
( b^ = bend up to)

"Close your eyes..."

C#|-------------------|
G#|--15--15b^17--13---|
E |-------------------|
B |-------------------|
F#|-------------------|
B |-------------------|

C#|-------|
G#|-------|
E |-------|
B |---3---|
F#|---3---|
B |---3---|

(^ Lightly strum after the lyric 'Gasoline')

"So now we're gonna chase the moon like fire..." (N= Tremolo)

C#|---------------------|---------------------|
G#|-18(N)--17(N)--15(N)-|-18(N)--17(N)--15(N)-|
E |---------------------|---------------------|
B |---------------------|---------------------|
F#|---------------------|---------------------|
B |---------------------|---------------------|

"Just wanna be alone.."

C#|---------|---------|---------|---------|-------------|-------------|-------------------------|
G#|---------|---------|---------|---------|-------------|-------------|-------------------------|
E |---------|---------|---------|---------|-19-19-19-19-|-21-21-21-21-|-22-22-22-22-22-22-22-22-|
B |-----3---|-----2---|---------|---------|--x--x--x--x-|--x--x--x--x-|--x--x--x--x--x--x--x--x-|
F#|-5-5---5-|-3-3---3-|-----8---|-----8---|-17-17-17-17-|-19-19-19-19-|-20-20-20-20-20-20-20-20-|
B |---------|---------|-7-7---7-|-8-8---8-|-------------|-------------|-------------------------|

"Just wanna be alone and watch..."

C#|-------------20-20-------|-------------20-20-------|-------------20-20-------|------------20-20---|
G#|-17-17-18-18-------18-18-|-17-17-18-18-------18-18-|-17-17-18-18-------18-18-|-17-17-18-18--------|
E |-------------------------|-------------------------|-------------------------|--------------------|
B |-------------------------|-------------------------|-------------------------|--------------------|
F#|-------------------------|-------------------------|-------------------------|--------------------|
B |-------------------------|-------------------------|-------------------------|--------------------|

C#|-18-18-17b~-|-17br-------|-17---|
G#|------------|------------|------|
E |------------|------15-14-|------|
B |------------|------------|------|
F#|------------|------------|------|
B |------------|------------|------|

(Let the last note ring.)

************************************

| x   Dead note
| b   Bend
| /   Slide up
| ~   Vibrato
| PM  Palm mute
| N   Tremolo

************************************

            
            
Suggest correction
Creating personal tab
Creating personal tab
You can edit any tab online and save it as your Personal.

You can edit, replace or remove any tab part or add personal notes – all changes will be seen only by you.

Personal tabs can be accessed anytime from any device, even offline.
Learn more »
Give kudos to tab author, rate the tab!
1 2 3 4 5
comments
print report bad tab
guest
You may want to rate the tab now too:
select rating
Wanna post a correction for this tab? Suggest correction