Oops, an error
Loading. Please wait.

Gold Medal Ribbon Tab

367 views 45 this week
no commentswrite comment
1 2 3 4 5
2 more votes to show rating
add to favorites
launch autoscroll
font size
0
reset
how to read this tab
guitar tuner
Autoscroll
slow
fast
+/-
esc
set tempo
stop
Help us to improve Ultimate-Guitar.com Take our survey!
×
Author
Difficulty
Tuning
novice
C# G# C# F# A# D#
(/) Slide Up  (\) Slide Down  (h) Hammer On  (p) Pull Off  (b) Bend (r) Release (v) Vibrato

[Intro] (0:00-0:38)

E|-------------15--17p15--17b18r17---------14--15--14------------19--17-----14--15--17----------------|
B|--17~----17-----------------------15~----------------15/17----------------------------15------------|
G|---------------------------------------------------------------------------------------------14h16--|
D|----------------------------------------------------------------------------------------------------|
A|----------------------------------------------------------------------------------------------------|
E|----------------------------------------------------------------------------------------------------|


E|------15/17---21--17\15---14--15--17---------------------------15--17--15--17b18~--17b18--17b18r17--|
B|--15----------------------------------15/17\15~----15--17--19---------------------------------------|
G|----------------------------------------------------------------------------------------------------|
D|----------------------------------------------------------------------------------------------------|
A|----------------------------------------------------------------------------------------------------|
E|----------------------------------------------------------------------------------------------------|


E|--18--17-----15--14-----12--10--||
B|--------------------------------||
G|--------------------------------||
D|--------------------------------||
A|--------------------------------||
E|--------------------------------||
Suggest correction
Give kudos to tab author, rate the tab!
1 2 3 4 5
comments
print report bad tab
guest
You may want to rate the tab now too:
select rating
Wanna post a correction for this tab? Suggest correction