Oops, an error
Loading. Please wait.

Gold Medal Ribbon tab

version 1
version 1

Whole song

  • Consists of many octaves and half bars.
898 views 39 this week
3 commentsread comments
1 2 3 4 5
x 3
add to favorites
×
Save as Personal and add changes to this tab that will be seen only by you. Learn more ›
×
You can save this tab as Personal to edit and correct it or add notes. All changes will be seen only by you. Learn more »
launch autoscroll
font size
0
reset
how to read this tab
guitar tuner
edit
Autoscroll
slow
fast
+/-
esc
set tempo
stop
About this tab version
Consists of many octaves and half bars. Was this info helpful? Yes No
[Intro]

C#|--------17-19p17--19br-----|----17------------21-19-|-16-17-19------------------------|
G#|-19-19------------------17-|-21----21--17/19--------|-----------17/19\17-----------17-|
E |---------------------------|------------------------|----------------------16/18------|
B |---------------------------|------------------------|---------------------------------|
F#|---------------------------|------------------------|---------------------------------|
B |---------------------------|------------------------|---------------------------------|

C#|-----24-----|-16-17-19----------|----16-17--19----|-21b---19b~-19~---16h17-16----------|
G#|-22b----22r-|----------17h19-17-|-19-----------19-|-----------------------------19-17~-|
E |------------|-------------------|-----------------|------------------------------------|
B |------------|-------------------|-----------------|------------------------------------|
F#|------------|-------------------|-----------------|------------------------------------|
B |------------|-------------------|-----------------|------------------------------------|

[Guitar 1]

C#|-----12---|
G#|-----12---|
E |-13-/14---|
B |----------| [x16]
F#|----------|
B |----------|

[Guitar 2]

C#|--------------------|----------------------|--------------------|------------------|
G#|--------------------|-10-9--7--------------|--------------------|-10-9--7----------|
E |-11--11--11--11--11-|---------9--7-6-/9-\6-|-11--11--11--11--11-|---------9--7-6---|
B |-11--11--11--11--11-|----------------------|-11--11--11--11--11-|------------------|
F#|--9---9---9---9---9-|----------------------|--9---9---9---9---9-|------------------|
B |--------------------|----------------------|--------------------|------------------|

[Verse]

"Are you up there? Just give me a signal..."

C#|------2--2-|-------2--2-|-----2-|----------------|----------------|----------------|----------------|
G#|------2--2-|-------2--2-|-----2-|----------------|----------------|----------------|----------------|
E |------2--2-|-------2--2-|-----2-|-/11-11--11--11-|-13--13--13--13-|-14--14--14--14-|-18--18--18--18-|
B |-0-0-------|-0-0--------|--0----|-/x---x---x---x-|--x---x---x---x-|--x---x---x---x-|--x---x---x---x-|
F#|-0-0-------|-0-0--------|--0----|-/9---9---9---9-|-11--11--11--11-|-12--12--12--12-|-16--16--16--16-|
B |-0-0-------|-0-0--------|--0----|----------------|----------------|----------------|----------------|

C#|-------------------------------------------|--------------|
G#|-------------------------------------------|--------------|
E |-------------------------------------------|-9-/-11\--9---|
B |-2-2-2-2-2-2-2-2-2-2-2-2-2-2-2-2-2-2-2-2-2-|-x-/--x\--x---|
F#|-2-2-2-2-2-2-2-2-2-2-2-2-2-2-2-2-2-2-2-2-2-|-7-/--9\--7---|
B |-2-2-2-2-2-2-2-2-2-2-2-2-2-2-2-2-2-2-2-2-2-|--------------|

C#|------2--2-|-------2--2-|-----2-|----------------|----------------|----------------|----------------|
G#|------2--2-|-------2--2-|-----2-|----------------|----------------|----------------|----------------|
E |------2--2-|-------2--2-|-----2-|-/11-11--11--11-|-13--13--13--13-|-14--14--14--14-|-18--18--18--18-|
B |-0-0-------|-0-0--------|--0----|-/x---x---x---x-|--x---x---x---x-|--x---x---x---x-|--x---x---x---x-|
F#|-0-0-------|-0-0--------|--0----|-/9---9---9---9-|-11--11--11--11-|-12--12--12--12-|-16--16--16--16-|
B |-0-0-------|-0-0--------|--0----|----------------|----------------|----------------|----------------|

C#|-------------------------------------------|--------------|
G#|-------------------------------------------|--------------|
E |-------------------------------------------|-9-/-11\--9---|
B |-2-2-2-2-2-2-2-2-2-2-2-2-2-2-2-2-2-2-2-2-2-|-x-/--x\--x---|
F#|-2-2-2-2-2-2-2-2-2-2-2-2-2-2-2-2-2-2-2-2-2-|-7-/--9\--7---|
B |-2-2-2-2-2-2-2-2-2-2-2-2-2-2-2-2-2-2-2-2-2-|--------------|

( ^ Left hand muting could be learned if you listen to the audio for quite a bit.)

[Chorus build up]

"So take off your rings and lipstick for me."

C#|-------------------------|-------------|---------|--------|--------|--------|--------|---|
G#|-------------------------|-------------|---------|--------|--------|--------|--------|---|
E |-------------------------|-------------|---------|--------|--------|--------|--------|---|
B |-12-12-12-12-12-12-12-12-|-11-11-11-11-|-9-9-9-9-|---9-11-|---9-11-|---9-11-|---9-11-|---|
F#|-------------------------|-------------|---------|-9------|-9------|-9------|-9------|-9-|
B |-------------------------|-------------|---------|--------|--------|--------|--------|---|
   

[Chorus]

"I swear that I could hear you in the wind..." 

(N = tremolo)

C#|----------------------21(N)-19(N)--16(N)----------------14(N)----------|
G#|-15(N)--17(N)--19(N)----------------------15(N)--14(N)---------14(N)---|
E |-----------------------------------------------------------------------|
B |-----------------------------------------------------------------------|
F#|-----------------------------------------------------------------------|
B |-----------------------------------------------------------------------|

"And you're dancing in the halls outside again"

C#|----------------------21(N)--/24(N)--24b(N)-19(N)-----------|
G#|-15(N)--17(N)--19(N)----------------------------------------|
E |------------------------------------------------------------|
B |------------------------------------------------------------|
F#|------------------------------------------------------------|
B |------------------------------------------------------------|

[Verse]

C#|------2-2-|------2-2-|----2-|-------------------------|-------------|--------------|-------------|
G#|------2-2-|------2-2-|----2-|-------------------------|-------------|--------------|-------------|
E |------2-2-|------2-2-|----2-|-------------------------|-------------|-/14-14-14-14-|-13-13-13-13-|
B |-0-0------|-0-0------|-0----|-0-0-0-0-0-0-0-0-0-0-0-0-|-4-2-2-2-2-2-|-/-x--x--x--x-|--x--x--x--x-|
F#|-0-0------|-0-0------|-0----|-0-0-0-0-0-0-0-0-0-0-0-0-|-4-2-2-2-2-2-|-/12-12-12-12-|-11-11-11-11-|
B |-0-0------|-0-0------|-0----|-0-0-0-0-0-0-0-0-0-0-0-0-|-4-2-2-2-2-2-|--------------|-------------|

"Send me off into space on this rocket convention"

C#|------------|------------|--------------|------------|-------------|---------------------|
G#|------14-14-|------14-14-|--------------|------------|-------------|---------------------|
E |-------x--x-|-------x--x-|-/16-/17--\14-|---------11-|----------14-|----------18-18-18---|
B |-0-0--12-12-|-0-0--12-12-|-/-x-/-x--\-x-|----------x-|-----------x-|-----------x--x--x---|
F#|-0-0--------|-0-0--------|-/14-/15--\12-|----------9-|----------12-|----------16-16-16---|
B |-0-0--------|-0-0--------|--------------|-0-0-0-0----|-0-0-0-0-----|-0-0-0-0-------------|
                                            |--PM--|     |--PM--|      |--PM--|
 


C#|------------|-----------|-----|------------|-------------------|------2-2-|--------------------2---|
G#|------------|-----------|-----|------------|-------------------|------2-2-|--------------------2---|
E |------4-4-4-|-----4-4-4-|---4-|------4-4-4-|-------------------|------2-2-|--------------------2---|
B |-2-2--------|-2-2-------|-2---|-2-2--------|-------------------|-0-0------|-0-0-0-0-0-0-0-0-0------|
F#|-2-2--------|-2-2-------|-2---|-2-2--------|--4p0-5p0-4p0--2*~-|-0-0------|-0-0-0-0-0-0-0-0-0------|
B |-2-2--------|-2-2-------|-2---|-2-2--------|-------------------|-0-0------|-0-0-0-0-0-0-0-0-0------|
                                                                              |-------PM-------|
(* = Pinch harmonic)

"It's self sabotage, suffocation..."                             "And stale taste of blood"

C#|---------|-------------------------|-------------------------|------------------|
G#|---------|-------------------------|-------------------------|------------------|
E |---------|-14-14-14-14-14-14-14-14-|-13-13-13-13-13-13-13-13-|------6-7-9-------|
B |-4-4-4-4-|--x--x--x--x--x--x--x--x-|--x--x--x--x--x--x--x--x-|--7-9-------7-6---|
F#|-4-4-4-4-|-12-12-12-12-12-12-12-12-|-11-11-11-11-11-11-11-11-|------------------|
B |-4-4-4-4-|-------------------------|-------------------------|------------------|
   |--PM--|

[Chorus]

"I swear that I can hear you in the wind..."

C#|----------------------21(N)-19(N)--16(N)----------------14(N)----------|
G#|-15(N)--17(N)--19(N)----------------------15(N)--14(N)---------14(N)---|
E |-----------------------------------------------------------------------|
B |-----------------------------------------------------------------------|
F#|-----------------------------------------------------------------------|
B |-----------------------------------------------------------------------|

"And you're dancing in the halls outside again"

C#|----------------------21(N)--/24(N)--24b(N)-19(N)-19b(N)-------|
G#|-15(N)--17(N)--19(N)-------------------------------------------|
E |---------------------------------------------------------------|
B |---------------------------------------------------------------|
F#|---------------------------------------------------------------|
B |---------------------------------------------------------------|

[Instrumental/Bridge]

[Guitar 1]

C#|---------------------------------|-----------------|-----------------|-----------------------------------|
G#|---------------------------------|-----------------|-----------------|-----------------------------------|
E |---------------------------------|-----------------|-----------------|-----------------------------------|
E |---------------------------------|-----------------|-----------------|-----------------------------------|
F#|-5-5-5-5-5-5-5-5-5-5-5-5-5-5-5-5-|-7-7-7-7-7-7-7-7-|-4-4-4-4-4-4-4-4-|-2-2-2-2-2-2-2-2-2-2-2-2-2-2-2-2-2-|
B |---------------------------------|-----------------|-----------------|-----------------------------------|
   |------------------------------------------------PM-----------------------------------------------------|

C#|-----------------------|---------|
G#|-----------------------|---------|
E |-----------------------|---------|
B |-----------------------|---------|
F#|-2-2-2-2-2-2-2-2-2-2-2-|-4-4-4-4-|
B |-----------------------|---------|
    |-------------PM--------------|

C#|---------|-----------|------------|---------|---------------|
G#|---------|-----------|----10------|---------|---------------|
E |-/6---6b-|-------4-6-|------------|---------|---------------|
B |---------|-7-4-7-----|-12---12-11-|-12p11p9-|-----7-9/11----|
F#|---------|-----------|------------|---------|-9\7-----------|
B |---------|-----------|------------|---------|---------------|         
(When bending, bend the string downward.)


"I'll teach you how to love..."

C#|-------------------------------|
G#|-------------------------------|
E |-------------------------------|
B |-0-12-0-11-0-0-16-14-0-12-0-11-| [x3]
F#|-------------------------------|
B |-------------------------------|
    |------------PM-------------|

C#|---------------------------------------|
G#|---------------------------------------|
E |---------------------------------------|
B |-0-0-0-11-0-7-0-0-7-9-0-11-0-12-0-11---|
F#|---------------------------------------|
B |---------------------------------------|
   |-----------------PM----------------|

C#|---------------------------------|
G#|---------------------------------|
E |---------------------------------|
B |-0-12-0-11-0-0-16-14-0-16-0-11---|
F#|---------------------------------|
B |---------------------------------|
   |-------------PM--------------|

C#|-------------------------------|
G#|-------------------------------|
E |-------------------------------|
B |-0-12-0-11-0-12-14-0-12-0-11---|
F#|-------------------------------|
B |-------------------------------|

C#|-----------------------------|---------------|-----------------|--------------------------|
G#|-----------------------------|---------------|-----------------|--------------------------|
E |-----------------------------|---------------|-----------------|--------------------------|
B |-0-0-0-0-0-0-0-6-0-6-0-6-0-6-|-0-7-0-7-0-7-0-|-9-9-9-9-9-9-9-9-|-11-11-11-11-11-11-11-11--|
F#|-----------------------------|---------------|-----------------|--------------------------|
B |-----------------------------|---------------|-----------------|--------------------------|

[Chorus]

"I swear that I can hear you in the wind..."

C#|-------------------------------------------------|-------------------------------------------------|
G#|-------------------------------------------------|-------------------------------------------------|
E |-11-11-11-11-11-11-11-11-11-11-11-11-11-11-11-11-|-14-14-14-14-14-14-14-14-14-14-14-14-14-14-14-14-|
B |-x--x--x--x--x--x--x--x--x--x--x--x--x--x--x--x--|--x--x--x--x--x--x--x--x--x--x--x--x--x--x--x--x-|
F#|-9--9--9--9--9--9--9--9--9--9--9--9--9--9--9--9--|-12-12-12-12-12-12-12-12-12-12-12-12-12-12-12-12-|
B |-------------------------------------------------|-------------------------------------------------|

C#|-------------------------------------------------|-------------------------------------|---------|
G#|-------------------------------------------------|-------------------------------------|---------|
E |-13-13-13-13-13-13-13-13-13-13-13-13-13-13-13-13-|-11-11-11-11-11-11-11-11-11-11-11-11-|-9-9-9-9-|
B |--x--x--x--x--x--x--x--x--x--x--x--x--x--x--x--x-|-x--x--x--x--x--x--x--x--x--x--x--x--|-x-x-x-x-|
F#|-11-11-11-11-11-11-11-11-11-11-11-11-11-11-11-11-|-9--9--9--9--9--9--9--9--9--9--9--9--|-7-7-7-7-|
B |-------------------------------------------------|-------------------------------------|---------|

C#|-------------------------------------------------|-------------------------------------|-------------|
G#|-------------------------------------------------|-------------------------------------|-------------|
E |-11-11-11-11-11-11-11-11-11-11-11-11-11-11-11-11-|-14-14-14-14-14-14-14-14-14-14-14-14-|-16-16-16-16-|
B |-x--x--x--x--x--x--x--x--x--x--x--x--x--x--x--x--|--x--x--x--x--x--x--x--x--x--x--x--x-|-x--x--x---x-|
F#|-9--9--9--9--9--9--9--9--9--9--9--9--9--9--9--9--|-12-12-12-12-12-12-12-12-12-12-12-12-|-14-14-14-14-|
B |-------------------------------------------------|-------------------------------------|-------------|

C#|-------------------------------------------------|-------------------------------------------------|
G#|-------------------------------------------------|-------------------------------------------------|
E |-13-13-13-13-13-13-13-13-13-13-13-13-13-13-13-13-|-19-19-19-19-19-19-19-19-19-19-19-19-19-19-19-19-|
B |--x--x--x--x--x--x--x--x--x--x--x--x--x--x--x--x-|--x--x--x--x--x--x--x--x--x--x--x--x--x--x--x--x-|
F#|-11-11-11-11-11-11-11-11-11-11-11-11-11-11-11-11-|-17-17-17-17-17-17-17-17-17-17-17-17-17-17-17-17-|
B |-------------------------------------------------|-------------------------------------------------|

"I'm always listening"

C#|----------------------21(N)-19(N)--16(N)----------------14(N)----------|
G#|-15(N)--17(N)--19(N)----------------------15(N)--14(N)---------14(N)---|
E |-----------------------------------------------------------------------|
B |-----------------------------------------------------------------------|
F#|-----------------------------------------------------------------------|
B |-----------------------------------------------------------------------|

C#|----------------------21(N)--/24(N)--24b(N)-19(N)-19b(N)-------|
G#|-15(N)--17(N)--19(N)-------------------------------------------|
E |---------------------------------------------------------------|
B |---------------------------------------------------------------|
F#|---------------------------------------------------------------|
B |---------------------------------------------------------------|

[Outro]

C#|-9p5-5-5h9-|-9p5-5-5h9-|-9p5-5-5h9-|-9p5-5-|-7h9p7p5-|
G#|-----------|-----------|-----------|-------|---------|
E |-----------|-----------|-----------|-------|---------|
B |-----------|-----------|-----------|-------|---------| [x2]
F#|-----------|-----------|-----------|-------|---------|
B |-----------|-----------|-------------------|---------|


************************************

| x   Dead note
| h   Hammer-on
| p   Pull-off
| r   Release
| b   Bend
| /   Slide up
| \   Slide down
| ~   Vibrato
| PM  Palm mute
| N   Tremolo

************************************

            
            
Suggest correction
Creating personal tab
Creating personal tab
You can edit any tab online and save it as your Personal.

You can edit, replace or remove any tab part or add personal notes – all changes will be seen only by you.

Personal tabs can be accessed anytime from any device, even offline.
Learn more »
Give kudos to tab author, rate the tab!
1 2 3 4 5
comments
print report bad tab
3 comments total.
+1 reply
marinalberto2 32 Mar 26, 2017 03:14 PM

About time someone posted the tabs! good job!

0 reply
PierceTheKnight 367 Mar 27, 2017 12:35 AM

Thanks! :D Happy to help!

+1 reply
Panther321 10 Apr 26, 2017 03:32 PM

Thank you so much man!!!!

guest
You may want to rate the tab now too:
select rating
Wanna post a correction for this tab? Suggest correction