Oops, an error
Loading. Please wait.

Hell Above bass

version 1
version 1

Whole song

Interactive

12,406 views 12 this week
6 commentsread comments
1 2 3 4 5
x 11
add to favorites
×
Save as Personal and add changes to this tab that will be seen only by you. Learn more ›
×
You can save this tab as Personal to edit and correct it or add notes. All changes will be seen only by you. Learn more »
launch autoscroll
font size
0
reset
guitar tuner
edit
Autoscroll
slow
fast
+/-
esc
set tempo
stop
   May These Noises Startle You In Your Sleep Tonight...
F#|-----------------------------------------------------------------|
C#|-----------------------------------------------------------------|
G#|-----------------------------------------------------------------|
C#|-5---------5-5-------------5555555---------5-5-----------8--7--5-|
    1 + 2 + 3 + 4 + 1 + 2 + 3 + 4 + 1 + 2 + 3 + 4 + 1 + 2 + 3 + 4 +

F#|-----------------------------------------------------------------|
C#|-----------------------------------------------------------------|
G#|-----------------------------------------------------------------|
C#|-0---------0-0---00--00----------0---------0-0---000000000---12\-|
    1 + 2 + 3 + 4 + 1 + 2 + 3 + 4 + 1 + 2 + 3 + 4 + 1 + 2 + 3 + 4 +

F#|-----------------------------------------------------------------|
C#|-----------------------------------------------------------------|
G#|-----------------------------------------------------------------|
C#|-5---5---5---5---5---5---5---8---5---5---5---5---5---5---5---8---|
    1 + 2 + 3 + 4 + 1 + 2 + 3 + 4 + 1 + 2 + 3 + 4 + 1 + 2 + 3 + 4 +

F#|-----------------------------------------------------------------|
C#|-----------------------------------------------------------------|
G#|-----------------------------------------------------------------|
C#|-0---0---0---0---0---0---0---0---0-------------------------------|
    1 + 2 + 3 + 4 + 1 + 2 + 3 + 4 + 1 + 2 + 3 + 4 + 1 + 2 + 3 + 4 +

   Hell Above...
F#|-----------------------------------------------------------------|
C#|-----------------------------------------------------------------|
G#|---------------------------------33333333333333333333333333335555|
C#|-55555555555555555555555555555555--------------------------------|
    1 + 2 + 3 + 4 + 1 + 2 + 3 + 4 + 1 + 2 + 3 + 4 + 1 + 2 + 3 + 4 +

F#|-----------------------------------------------------------------|
C#|-----------------------------------------------------------------|
G#|-6666666666666666--------------------0---3---5---66553311001100--|
C#|-----------------00000000000000005-----------------------------66|
    1 + 2 + 3 + 4 + 1 + 2 + 3 + 4 + 1 + 2 + 3 + 4 + 1 + 2 + 3 + 4 +

   Verse
F#|-----------------------------------------------------------------|
C#|-----------------------------------------------------------------|
G#|-----------------------------------------------------------------|
C#|-5-------------------------------0-----------------------5--7--8-|
    1 + 2 + 3 + 4 + 1 + 2 + 3 + 4 + 1 + 2 + 3 + 4 + 1 + 2 + 3 + 4 +

F#|-----------------------------------------------------------------|
C#|-----------------------------------------------------------------|
G#|-----------------------------------------------------------------|
C#|-1-------------------------------12--------------0---------------|
    1 + 2 + 3 + 4 + 1 + 2 + 3 + 4 + 1 + 2 + 3 + 4 + 1 + 2 + 3 + 4 +

   Pre-Chorus
F#|-----------------------------------------------------------------|
C#|-----------------------------------------------------------------|
G#|-----------------6666665555551111--------------------------------|
C#|-5555555555555555----------------00000000000000000---------------|
    1 + 2 + 3 + 4 + 1 + 2 + 3 + 4 + 1 + 2 + 3 + 4 + 1 + 2 + 3 + 4 +

F#|---------------------------------------------------------------------|
C#|---------------------------------------------------------------------|
G#|---------------------------------------------------------------------|
C#|-1111------11111113-13-13-13---1111110000------0000000---------------|
    1 + 2 + 3 + 4 + 1  +  2  +  3 + 4 + 1 + 2 + 3 + 4 + 1 + 2 + 3 + 4 +

   Chorus
F#|-----------------------------------------------------------------|
C#|-----------------------------------------------------------------|
G#|---------------------------------3-3-3-3-3-3-3-3-5-5-3-3-1-1-0-0-|
C#|-5-5-5-5-5-5-5-5-1-1-1-1-1-1-1-1---------------------------------|
    1 + 2 + 3 + 4 + 1 + 2 + 3 + 4 + 1 + 2 + 3 + 4 + 1 + 2 + 3 + 4 +

F#|-----------------------------------------------------------------|
C#|-----------------------------------------------------------------|
G#|---------------------------------3-3-3-3-3-3-3-3-----------------|
C#|-5-5-5-5-5-5-5-5-1-1-1-1-1-1-1-1---------------------------/-12\-|
    1 + 2 + 3 + 4 + 1 + 2 + 3 + 4 + 1 + 2 + 3 + 4 + 1 + 2 + 3 + 4 +

   Verse
F#|-----------------------------------------------------------------|
C#|-5-\-------------5-\---------------------------------------------|
G#|---------------------------------5-\-------------5-\---------3-5-|
C#|-------55-55-----------55-55-----------00-00-----------00-00-----|
    1 + 2 + 3 + 4 + 1 + 2 + 3 + 4 + 1 + 2 + 3 + 4 + 1 + 2 + 3 + 4 +

F#|-----------------------------------------------------------------|
C#|-----------------------------------------------------------------|
G#|-6-\-------------6-\-------------5-\-------------5-\-------------|
C#|-------11-11-----------11-11-----------00--00--------------------|
    1 + 2 + 3 + 4 + 1 + 2 + 3 + 4 + 1 + 2 + 3 + 4 + 1 + 2 + 3 + 4 +

F#|-----------------------------------------------------------------|
C#|-5-\-------------5-\---------------------------------------------|
G#|---------------------------------5-\-------------5-\---------3-5-|
C#|-------55-55-----------55-55-----------00-00-----------00-00-----|
    1 + 2 + 3 + 4 + 1 + 2 + 3 + 4 + 1 + 2 + 3 + 4 + 1 + 2 + 3 + 4 +

F#|-----------------------------------------------------------------|
C#|-----------------------------------------------------------------|
G#|-6-\-------------6-\-------------10------------------------------|
C#|-------11-11-----------11-11---------------------0---------------|
    1 + 2 + 3 + 4 + 1 + 2 + 3 + 4 + 1 + 2 + 3 + 4 + 1 + 2 + 3 + 4 +

   Pre-Chorus
F#|-----------------------------------------------------------------|
C#|-----------------------------------------------------------------|
G#|-----------------------------------------------------------------|
C#|-----------------------------------------------------------------|
    1 + 2 + 3 + 4 + 1 + 2 + 3 + 4 + 1 + 2 + 3 + 4 + 1 + 2 + 3 + 4 +

   Chorus
F#|-----------------------------------------------------------------|
C#|-----------------------------------------------------------------|
G#|---------------------------------3-3-3-3-3-3-3-3-5-5-3-3-1-1-0-0-|
C#|-5-5-5-5-5-5-5-5-1-1-1-1-1-1-1-1---------------------------------|
    1 + 2 + 3 + 4 + 1 + 2 + 3 + 4 + 1 + 2 + 3 + 4 + 1 + 2 + 3 + 4 +

F#|-----------------------------------------------------------------|
C#|-----------------------------------------------------------------|
G#|---------------------------------3-3-3-3-3-3-3-3-5-5-5-5-5-5-5-5-|
C#|-5-5-5-5-5-5-5-5-1-1-1-1-1-1-1-1---------------------------------|
    1 + 2 + 3 + 4 + 1 + 2 + 3 + 4 + 1 + 2 + 3 + 4 + 1 + 2 + 3 + 4 +

F#|---------------------------------------------------------5-------|
C#|-------------------------7--------------------------4--7----8--7-|
G#|-----------------------5----5--3-3---/---15--13--5---------------|
C#|-5---------------4-----------------------------------------------|
    1 + 2 + 3 + 4 + 1 + 2 + 3 + 4 + 1 + 2 + 3 + 4 + 1 + 2 + 3 + 4 +

F#|-----------------------------------------------------------------|
C#|-----------------------------------------------------------------|
G#|---------------------------------333333333333333310--12--13--15--|
C#|-55555555555555551111111111111111--------------------------------|
    1 + 2 + 3 + 4 + 1 + 2 + 3 + 4 + 1 + 2 + 3 + 4 + 1 + 2 + 3 + 4 +

F#|-----11--14--17--------------------------------------------------|
C#|-12--------------------------------------------------------------|
G#|-----------------------------------------------------------------|
C#|-----------------00000000000000000-------------------------------|
    1 + 2 + 3 + 4 + 1 + 2 + 3 + 4 + 1 + 2 + 3 + 4 + 1 + 2 + 3 + 4 +

   Bridge
F#|-------------------------------------------------------------|
C#|-------------------------------------------------------------| I think these parts are Triplets...
G#|-------------------------------------------------------------| (Trp = Triplet)
C#|-5555555555555-----------------------------------------------|
    TrpTrpTrpTrp3 e + a 4 e + a 1 e + a 2 e + a 3 e + a 4 e + a

F#|-------------------------------------------------------------|
C#|-------------------------------------------------------------|
G#|-------------------------------------------------------------|
C#|-5555555555555-----------------------------------------------|
    TrpTrpTrpTrp3 e + a 4 e + a 1 e + a 2 e + a 3 e + a 4 e + a

F#|-------------------------------------------------------------|
C#|-------------------------------------------------------------|
G#|-6666666666666-----------------------------------------------|
C#|-------------------------------------------------------------|
    TrpTrpTrpTrp3 e + a 4 e + a 1 e + a 2 e + a 3 e + a 4 e + a

F#|-------------------------------------------------------------|
C#|-------------------------------------------------------------|
G#|-9999999999999-----------------------------------------------|
C#|-------------------------------------------------------------|
    TrpTrpTrpTrp3 e + a 4 e + a 1 e + a 2 e + a 3 e + a 4 e + a

F#|-------------------------------------------------------------|
C#|-------------------------------------------------------------|
G#|-------------------------------------------------------------|
C#|-5555555555555-------------------5---5-----------5---5-------|
    TrpTrpTrpTrp3 e + a 4 e + a 1 e + a 2 e + a 3 e + a 4 e + a

F#|-------------------------------------------------------------|
C#|-------------------------------------------------------------|
G#|---------------------------------------------5-------4-------|
C#|-5555555555555-------------------5---5-----------------------|
    TrpTrpTrpTrp3 e + a 4 e + a 1 e + a 2 e + a 3 e + a 4 e + a

F#|-------------------------------------------------------------|
C#|-------------------------------------------------------------|
G#|-6666666666666-----------------------------------------------|
C#|-------------------------------------------------------------|
    TrpTrpTrpTrp3 e + a 4 e + a 1 e + a 2 e + a 3 e + a 4 e + a

F#|-------------------------------------------------------------|
C#|-------------------------------------------------------------|
G#|-9999999999999-------------------------------4---------------|
C#|-----------------------------4-------------------------------|
    TrpTrpTrpTrp3 e + a 4 e + a 1 e + a 2 e + a 3 e + a 4 e + a

Rest
   
   Pre-Chorus
F#|-----------------------------------------------------------------|
C#|-----------------------------------------------------------------|
G#|-----------------6-----------------------------------------------|
C#|-5-------------------------------0---------------12\-\-----------|
    1 + 2 + 3 + 4 + 1 + 2 + 3 + 4 + 1 + 2 + 3 + 4 + 1 + 2 + 3 + 4 +

   Chorus
F#|-----------------------------------------------------------------|
C#|-----------------------------------------------------------------|
G#|---------------------------------3-3-3-3-3-3-3-3-5-5-3-3-1-1-0-0-|
C#|-5-5-5-5-5-5-5-5-1-1-1-1-1-1-1-1---------------------------------|
    1 + 2 + 3 + 4 + 1 + 2 + 3 + 4 + 1 + 2 + 3 + 4 + 1 + 2 + 3 + 4 +

F#|-----------------------------------------------------------------|
C#|-----------------------------------------------------------------|
G#|---------------------------------3-3-3-3-3-3-3-3-5-5-5-5-5-5-5-5-|
C#|-5-5-5-5-5-5-5-5-1-1-1-1-1-1-1-1---------------------------------|
    1 + 2 + 3 + 4 + 1 + 2 + 3 + 4 + 1 + 2 + 3 + 4 + 1 + 2 + 3 + 4 +

F#|---------------------------------------------------------5-------|
C#|-------------------------7--------------------------4--7----8--7-|
G#|-----------------------5----5--3-3---/---15--13--5---------------|
C#|-5---------------4-----------------------------------------------|
    1 + 2 + 3 + 4 + 1 + 2 + 3 + 4 + 1 + 2 + 3 + 4 + 1 + 2 + 3 + 4 +

F#|-----------------------------------------------------------------|
C#|-----------------------------------------------------------------|
G#|---------------------------------333333333333333310--12--13------|
C#|-55555555555555551111111111111111----------------------------12\-|
    1 + 2 + 3 + 4 + 1 + 2 + 3 + 4 + 1 + 2 + 3 + 4 + 1 + 2 + 3 + 4 +

   Outro
F#|-------------------------------------------------------------------|
C#|-------------------------------------------------------------------|
G#|---------------0-1---1---1---3-1-0---0---0---0-1----10---8---5---3-|
C#|-5---5---5---5-----------------------------------10----8---5---3---|
    1 + 2 + 3 + 4 + 1 + 2 + 3 + 4 + 1 + 2 + 3 + 4 + 1  +  2 + 3 + 4 +

F#|-----------------------------------------------------------------|
C#|-----------------------------------------------------------------|
G#|---------------0-1---1---1---3-1-0---0---0---0-1-----------------|
C#|-5---5---5---5-----------------------------------0000000000000000|
    1 + 2 + 3 + 4 + 1 + 2 + 3 + 4 + 1 + 2 + 3 + 4 + 1 + 2 + 3 + 4 +

Tabbed By Jack Mills

            
            
Suggest correction
Creating personal tab
Creating personal tab
You can edit any tab online and save it as your Personal.

You can edit, replace or remove any tab part or add personal notes – all changes will be seen only by you.

Personal tabs can be accessed anytime from any device, even offline.
Learn more »
comments
print report bad tab
6 comments total. Showing first comments.
0 reply
Shamudi 10 Jul 13, 2014 04:28 PM, edited at 08:53 pm

Can you explain the slide in the first song (I know what sliding down is)?

update: mistake on my part, my bad. I just read it wrong.

0 reply
sreynolds6388 10 Oct 24, 2014 06:04 AM

nice tab! seems accurate.

0 reply
sreynolds6388 10 Oct 24, 2014 07:19 AM

wow! i'm actually really blown away.

guest
You may want to rate the tab now too:
select rating
Wanna post a correction for this tab? Suggest correction