Oops, an error
Loading. Please wait.

Hell Above Tab

version 1
version 1

Whole song

Interactive

64,568 views 87 this week
5 commentsread comments
1 2 3 4 5
accurate
x 24
add to favorites
launch autoscroll
font size
0
reset
how to read this tab
guitar tuner
Autoscroll
slow
fast
+/-
esc
set tempo
stop
Help us to improve Ultimate-Guitar.com Take our survey!
×
Author
Difficulty
Tuning
intermediate
B F# B E G# C#
----------------------------------------------------------------------------
                              Hell Above
                            Pierce the Veil
----------------------------------------------------------------------------

Youtube Tutorial: http://www.youtube.com/watch?v=OfB4JXb3sXQ
Email: guitardrums@rockfan.com

Guitar 1 Rhythmic (B  F# B  E  G# C# )
Guitar 2 Lead     (B  F# B  E  G# C# )

Tab Guide...
===================================================================
(end of measures)

===================================================================
===================================================================
(end of parts)

===================================================================
===================================================================
===================================================================
(end of song)

(If there is a “continued” it is because the numbers could not
fit on 1 line or connecting times played.)


[Intro]

Guitar 1
C#|-----------------------------------------------------------------|
G#|-----------------------------------------------------------------|
E |-2-2-2-2-2-2-2-2-2-2-2-2-2-2-2-2-2-2-2-2-2-2-2-2-2-2-2-2-2-2-2-2-|
B |-2-2-2-2-2-2-2-2-2-2-2-2-2-2-2-2-2-2-2-2-2-2-2-2-2-2-2-2-2-2-2-2-|
F#|-0-0-0-0-0-0-0-0-0-0-0-0-0-0-0-0-0-0-0-0-0-0-0-0-0-0-0-0-0-0-0-0-|
B |-----------------------------------------------------------------|

Guitar 2
C#|-------------------------------------------------|
G#|----------17-17-15-15-13-13-12-12----12----12-13-|
E |-14-14-14-------------------------14----14-------|
B |-------------------------------------------------|
F#|-------------------------------------------------|
B |-------------------------------------------------|


Guitar 2 continued
C#|-------------------------------------------------|
G#|----------17-17-15-15-13-13-12-12----12----------|
E |-14-14-14-------------------------14----14-12-12-|
B |-------------------------------------------------|
F#|-------------------------------------------------|
B |-------------------------------------------------|

===================================================================

Guitar 1
C#|------------------------------------------------------------------|
G#|------------------------------------------------------------------|
E |-10-10-10-10-10-10-10-10-10-10-10-9-9-9-9-9-9-9-9-7-7-7-7-7-7-7-7-|
B |-x--x--x--x--x--x--x--x--x--x--x--x-x-x-x-x-x-x-x-x-x-x-x-x-x-x-x-|
F#|-8--8--8--8--8--8--8--8--8--8--8--7-7-7-7-7-7-7-7-5-5-5-5-5-5-5-5-|
B |------------------------------------------------------------------|

Guitar 2
C#|-------------------------------------------------|
G#|----------17-17-15-15-13-13-12-12----12----12-13-|
E |-14-14-14-------------------------14----14-------|
B |-------------------------------------------------|
F#|-------------------------------------------------|
B |-------------------------------------------------|


Guitar 2 continued
C#|-------------------------------------------------|
G#|----------17-17-15-15-13-13-12-12----12----------|
E |-14-14-14-------------------------14----14-12-12-|
B |-------------------------------------------------|
F#|-------------------------------------------------|
B |-------------------------------------------------|

===================================================================

Guitar 1
C#|-----------------------------------------------------------------|
G#|-----------------------------------------------------------------|
E |-5-5-5-5-5-5-5-5-5-5-5-5-5-5-5-5-7-7-7-7-7-7-7-7-4-4-4-4-4-4-4-4-|
B |-x-x-x-x-x-x-x-x-x-x-x-x-x-x-x-x-x-x-x-x-x-x-x-x-x-x-x-x-x-x-x-x-|
F#|-3-3-3-3-3-3-3-3-3-3-3-3-3-3-3-3-5-5-5-5-5-5-5-5-2-2-2-2-2-2-2-2-|
B |-----------------------------------------------------------------|

Guitar 2
C#|-------------------------------------------------|
G#|----------17-17-15-15-13-13-12-12----12----12-13-|
E |-14-14-14-------------------------14----14-------|
B |-------------------------------------------------|
F#|-------------------------------------------------|
B |-------------------------------------------------|


Guitar 2 continued
C#|-------------------------------------------------|
G#|----------17-17-15-15-13-13-12-12----12----------|
E |-14-14-14-------------------------14----14-12-12-|
B |-------------------------------------------------|
F#|-------------------------------------------------|
B |-------------------------------------------------|

===================================================================

Guitar 1
C#|-------------------------------------------------------------------|
G#|-------------------------------------------------------------------|
E |-4h5p4---4h5p4---4h5p4---4h5p4---10-10-9-9-7-7-5-5-4-4-5-5-4-4-----|
B |-------7-------7-------7-------7-------------------------------6-6-|
F#|-------------------------------------------------------------------|
B |-------------------------------------------------------------------|

Guitar 2
C#|-------------------------------------------------|
G#|-------------------------------------------------|
E |-14-14-14-14-16-16-16-16-17-17-17-17-19-19-19-19-|
B |-------------------------------------------------|
F#|-------------------------------------------------|
B |-------------------------------------------------|

Guitar 2
C#|-------------------------------------------------|
G#|-------------------------------------------------|
E |-19-19-17-17-16-16-14-14-13-13-------------------|
B |-------------------------------14-14-12-12-10-10-|
F#|-------------------------------------------------|
B |-------------------------------------------------|

===================================================================
===================================================================


[Verse 1]

Guitar 1
C#|-----------------------------------------------------------------|
G#|-6---6---6---6---6---6---6---6---6---6---6---6---6---6---6---6---|
E |-9---9---9---9---9---9---9---9---9---9---9---9---9---9---9---9---|
B |-----------------------------------------------------------------|
F#|-----------------------------------------------------------------|
B |-----------------------------------------------------------------|

Guitar 2
C#|------------------------------------------------------------------|
G#|------------------------------------------------------------------|
E |----16-17---16-17---16-17---16-17---16-17---16-17---16-17---16-17-|
B |-14------14------14------14------14------14------14------14-------|
F#|------------------------------------------------------------------|
B |------------------------------------------------------------------|

===================================================================

Guitar 1
C#|-----------------------------------------------------------------|
G#|-6---6---6---6---6---6---6---6---6---6---6---6---6---6---6---6---|
E |-9---9---9---9---9---9---9---9---9---9---9---9---9---9---9---9---|
B |-----------------------------------------------------------------|
F#|-----------------------------------------------------------------|
B |-----------------------------------------------------------------|

Guitar 2
C#|------------------------------------------------------------------|
G#|------------------------------------------------------------------|
E |----14-16---14-16---14-16---14-16---14-16---14-16---14-16---14-16-|
B |-12------12------12------12------12------12------12------12-------|
F#|------------------------------------------------------------------|
B |------------------------------------------------------------------|

===================================================================

Guitar 1
C#|-----------------------------------------------------------------|
G#|-6---6---6---6---6---6---6---6---6---6---6---6---6---6---6---6---|
E |-9---9---9---9---9---9---9---9---9---9---9---9---9---9---9---9---|
B |-----------------------------------------------------------------|
F#|-----------------------------------------------------------------|
B |-----------------------------------------------------------------|

Guitar 2
C#|------------------------------------------------------------------|
G#|------------------------------------------------------------------|
E |----17-19---17-19---17-19---17-19---17-19---17-19---17-19---17-19-|
B |-15------15------15------15------15------15------15------15-------|
F#|------------------------------------------------------------------|
B |------------------------------------------------------------------|

===================================================================

Guitar 1
C#|-----------------------------------------------------------------|
G#|-6---6---6---6---6---6---6---6-----------------------------------|
E |-9---9---9---9---9---9---9---9-----------------------------------|
B |---------------------------------2~~~~~~~~~~~~~~-ps\~~~~~~~~~~~~-|
F#|---------------------------------2~~~~~~~~~~~~~~-ps\~~~~~~~~~~~~-|
B |---------------------------------2~~~~~~~~~~~~~~-ps\~~~~~~~~~~~~-|

Guitar 2
C#|-----------------------------------------------------------------|
G#|-----------------------------------------------------------------|
E |-----------------------------------------------------------------|
B |---------------------------------2~~~~~~~~~~~~~~-ps\~~~~~~~~~~~~-|
F#|---------------------------------2~~~~~~~~~~~~~~-ps\~~~~~~~~~~~~-|
B |---------------------------------2~~~~~~~~~~~~~~-ps\~~~~~~~~~~~~-|

===================================================================
===================================================================


[Pre Chorus 1]

Guitar 1
C#|-----------------------------------------------------------------|
G#|-----------------------------------------------------------------|
E |-2-2-2-2-2-2-2-2-2-2-2-2-2-2-2-2-2-2-2-2-2-2-2-2-2-2-2-2-2-2-2-2-|
B |-2-2-2-2-2-2-2-2-2-2-2-2-2-2-2-2-2-2-2-2-2-2-2-2-2-2-2-2-2-2-2-2-|
F#|-0-0-0-0-0-0-0-0-0-0-0-0-0-0-0-0-0-0-0-0-0-0-0-0-0-0-0-0-0-0-0-0-|
B |-----------------------------------------------------------------|

Guitar 2
C#|-----------------------------------------------------------------|
G#|-----------------------------------------------------------------|
E |-9-9-9-9-9-9-9-9-9-9-9-9-9-9-9-9-9-9-9-9-9-9-9-9-9-9-9-9-9-9-9-9-|
B |-x-x-x-x-x-x-x-x-x-x-x-x-x-x-x-x-x-x-x-x-x-x-x-x-x-x-x-x-x-x-x-x-|
F#|-7-7-7-7-7-7-7-7-7-7-7-7-7-7-7-7-7-7-7-7-7-7-7-7-7-7-7-7-7-7-7-7-|
B |-----------------------------------------------------------------|

===================================================================

Guitar 1
C#|----------------------------------------------------------|
G#|----------------------------------------------------------|
E |---------------------------------10-9-7-9-7-5-7-5-4-5-4-2-|
B |-2-2-2-2-2-2-2-2-2-2-2-2-2-2-2-2--------------------------|
F#|-2-2-2-2-2-2-2-2-2-2-2-2-2-2-2-2--------------------------|
B |-2-2-2-2-2-2-2-2-2-2-2-2-2-2-2-2--------------------------|

Guitar 2
C#------------------------------------------------------------------|
G#---------------------------------15-13-12-13-12-10-12-10-9-10-9---|
E -9-9-9-9-9-9-9-9-9-9-9-9-9-9-9-9--------------------------------9-|
B -x-x-x-x-x-x-x-x-x-x-x-x-x-x-x-x----------------------------------|
F#-7-7-7-7-7-7-7-7-7-7-7-7-7-7-7-7----------------------------------|
B ------------------------------------------------------------------|

===================================================================

Guitar 1
C#|-----------------------------------------------------------------|
G#|-----------------------------------------------------------------|
E |-----------------------------------------------------------------|
B |-3-3-3-3---------3-3-----3-3-----3-3-3-3---------3-3-----3-3-----|
F#|-3-3-3-3---------3-3-----3-3-----3-3-3-3---------3-3-----3-3-----|
B |-3-3-3-3---------3-3-----3-3-----3-3-3-3---------3-3-----3-3-----|

Guitar 2
C#-----------------------------------------------------------------|
G#-----------------------------------------------------------------|
E -10-10-10-10-----10-10---10-10---10-10-10-10-----10-10---10-10---|
B -x--x--x--x------x--x----x--x----x--x--x--x------x--x----x--x----|
F#-8--8--8--8------8--8----8--8----8--8--8--8------8--8----8--8----|
B -----------------------------------------------------------------|

===================================================================

Guitar 1
C#|-----------------------------------------------------------------|
G#|-----------------------------------------------------------------|
E |-----------------------------------------------------------------|
B |-2-2-2-2---------2-2-----2-2-----2~~~~~~~~~~~~~~-2~~~~~~~~~~~~~~-|
F#|-2-2-2-2---------2-2-----2-2-----2~~~~~~~~~~~~~~-2~~~~~~~~~~~~~~-|
B |-2-2-2-2---------2-2-----2-2-----2~~~~~~~~~~~~~~-2~~~~~~~~~~~~~~-|

Guitar 2
C#-----------------------------------------------------------------|
G#-----------------------------------------------------------------|
E -9-9-9-9---------9-9-----9-9-----9~~~~~~~~~~~~~~-13~~~~~~~~~~~~~-|
B -x-x-x-x---------x-x-----x-x-----x---------------x---------------|
F#-7-7-7-7---------7-7-----7-7-----7~~~~~~~~~~~~~~-11~~~~~~~~~~~~~-|
B -----------------------------------------------------------------|

===================================================================
===================================================================


[Chorus]

Guitar 1
C#|-----------------------------------------------------------------|
G#|-----------------------------------------------------------------|
E |-2---2---2---2---2---2---2---2-----------------------------------|
B |-2---2---2---2---2---2---2---2---3---3---3---3---3---3---3---3---|
F#|-0---0---0---0---0---0---0---0---3---3---3---3---3---3---3---3---|
B |---------------------------------3---3---3---3---3---3---3---3---|

Guitar 2
C#|-----------------------------------------------------------------|
G#|-13--13--13--13--13--13--13--13--10--10--10--10--10--10--10--10--|
E |-x---x---x---x---x---x---x---x---x---x---x---x---x---x---x---x---|
B |-10--10--10--10--10--10--10--10--7---7---7---7---7---7---7---7---|
F#|-----------------------------------------------------------------|
B |-----------------------------------------------------------------|

===================================================================

Guitar 1
C#|-----------------------------------------------------------------|
G#|-----------------------------------------------------------------|
E |-----------------------------------------------------------------|
B |-0---0---0---0---0---0---0---0---2---2---2---2---2---2---x-x-x-x-|
F#|-0---0---0---0---0---0---0---0---2---2---2---2---2---2---x-x-x-x-|
B |-0---0---0---0---0---0---0---0---2---2---2---2---2---2---x-x-x-x-|

Guitar 2
C#-----------------------------------------------------------------|
G#-----------------------------------------------------------------|
E -10--10--10--10--10--10--10--10--9---9---7---7---5---5-----------|
B -x---x---x---x---x---x---x---x---x---x---x---x---x---x---x-x-x-x-|
F#-8---8---8---8---8---8---8---8---7---7---5---5---3---3---x-x-x-x-|
B ---------------------------------------------------------x-x-x-x-|

===================================================================

Guitar 1
C#|-----------------------------------------------------------------|
G#|-----------------------------------------------------------------|
E |-2---2---2---2---2---2---2---2-----------------------------------|
B |-2---2---2---2---2---2---2---2---3---3---3---3---3---3---3---3---|
F#|-0---0---0---0---0---0---0---0---3---3---3---3---3---3---3---3---|
B |---------------------------------3---3---3---3---3---3---3---3---|

Guitar 2
C#-----------------------------------------------------------------|
G#-13--13--13--13--13--13--13--13--10--10--10--10--10--10--10--10--|
E -x---x---x---x---x---x---x---x---x---x---x---x---x---x---x---x---|
B -10--10--10--10--10--10--10--10--7---7---7---7---7---7---7---7---|
F#-----------------------------------------------------------------|
B -----------------------------------------------------------------|

===================================================================

Guitar 1
C#|-----------------------------------------------------------------|
G#|-----------------------------------------------------------------|
E |-----------------------------------------------------------------|
B |-0---0---0---0---0---0---0---0---------------------------3*~~~~~-|
F#|-0---0---0---0---0---0---0---0---------------------------3*~~~~~-|
B |-0---0---0---0---0---0---0---0-----------------------------------|

Guitar 2
C#---------------------------------------20-------20-------19------|
G#------------------------------------22-------22-------21---------|
E -8---8---8---8---8---8---8---8---21-------21-------20-------19~\-|
B -x---x---x---x---x---x---x---x-----------------------------------|
F#-6---6---6---6---6---6---6---6-----------------------------------|
B -----------------------------------------------------------------|

===================================================================
===================================================================


[Verse 2]

Guitar 1 & 2
C#|-----------------------------------------------------------------|
G#|-----------------------------------------------------------------|
E |-----------------------------------------------------------------|
B |-----------------------------------------------------------------|
F#|-----------------------------------------------------------------|
B |-7/~~~~~~~~~~~~~-------------------------------------------------|

===================================================================

Guitar 1 & 2
C#|-----------------------------------------------------------------|
G#|-----------------------------------------------------------------|
E |-----------------------------------------------------------------|
B |-----------------------------------------------------------------|
F#|-----------------------------------------------------------------|
B |-----------------------------------------------------------------|

===================================================================

Guitar 1 & 2
C#|-----------------------------------------------------------------|
G#|-----------------------------------------------------------------|
E |-----------------------------------------------------------------|
B |-----------------------------------------------------------------|
F#|-----------------------------------------------------------------|
B |-----------------------------------------------------------------|

===================================================================

Guitar 1
C#-----------------------------------------------------------------|
G#-----------------------------------------------------------------|
E -----------------------------------------------------------------|
B -----------------------------------------------------x-x---------|
F#-----------------------------------------------------x-x-12\~~~~-|
B -----------------------------------------------------x-x---------|

Guitar 2
C#|-----------------------------------------------------------------|
G#|-10-10-10-10-10-10-10-10-10-10-10-10-----------------------------|
E |-x--x--x--x--x--x--x--x--x--x--x--x------------------------------|
B |-7--7--7--7--7--7--7--7--7--7--7--7------------------x-x---------|
F#|-----------------------------------------------------x-x-12\~~~~-|
B |-----------------------------------------------------x-x---------|

===================================================================

Guitar 1
C#|-----------------------------------------------------------------|
G#|-----------------------------------------------------------------|
E |-----------------------------------------------------------------|
B |-------------7-7---7-7-------------------------------------------|
F#|-------------7-7---7-7-------------------------------------------|
B |-7\~~~~~~~~~-7-7---7-7-------------------------------------------|
 Pm             . .   . .

Guitar 2
C#|-----------------------------------------------------------------|
G#|-----------------------------------------------------------------|
E |-----------------------------------------------------------------|
B |-7~~~~~-----10-10--10-10--7------7~~~~---------------------------|
F#|--------7--------------------7-7-------7~~~~-10------------------|
B |-------------------------------------------------10~~~~~-9~~~~~~-|
Pm                             . .

===================================================================

Guitar 1
C#|-----------------------------------------------------------------|
G#|-----------------------------------------------------------------|
E |-----------------------------------------------------------------|
B |-------------2-2---2-2-------------------------------------------|
F#|-------------2-2---2-2-------------------------------------------|
B |-------------2-2---2-2-------------------------------------------|
 Pm             . .   . .

Guitar 2
C#|-----------------------------------------------------------------|
G#|-----------------------------------------------------------------|
E |-----------------------------------------------------------------|
B |-7~~~~~~-------------------------7~~~~---------------------------|
F#|---------7---7-7---7-7-------7-7-------7~~~~-10------------------|
B |-------------------------------------------------10~~~~~-9~~~~~~-|
 pm                             . .

===================================================================

Guitar 1
C#|-----------------------------------------------------------------|
G#|-----------------------------------------------------------------|
E |-----------------------------------------------------------------|
B |-------------3-3---3-3-----------------------3-3---3-3-----------|
F#|-------------3-3---3-3-----------------------3-3---3-3-----------|
B |-------------3-3---3-3-----------------------3-3---3-3-----------|
 Pm             . .   . .                       . .   . .

Guitar 2
C#|-----------------------------------------------------------------|
G#|-----------------------------------------------------------------|
E |-----------------------------------------------------------------|
B |-7~~~~~-----12-12--12-12----------7~~~---------------------------|
F#|---------7-----------------10-7-7------7~~~~-10------------------|
B |-------------------------------------------------10~~~~~-9~~~~~~-|
 Pm                              . .

===================================================================

Guitar 1 & 2
C#|-----------------------------------------------------------------|
G#|-----------------------------------------------------------------|
E |-9---------------------------------------------------------------|
B |-9-------------------------------2~~~~~~~~~~~~~~~~~~~~~~~~~~~~~~-|
F#|-7-------------------------------2~~~~~~~~~~~~~~~~~~~~~~~~~~~~~~-|
B |---------------------------------2~~~~~~~~~~~~~~~~~~~~~~~~~~~~~~-|

===================================================================
===================================================================


[Pre Chorus 2]

Guitar 1
C#|------------------------------------------------------------------|
G#|------------------------------------------------------------------|
E |---------------------------------10-10-10-10-10-10-10-10-10-10-10-|
B |-7-7-7-7-7-7-7-7-7-7-7-7-7-7-7-7----------------------------------|
F#|------------------------------------------------------------------|
B |------------------------------------------------------------------|

Guitar 2
C#-----------------------------------------------------------------|
G#-13~~~-12~~~---------------------13~~~-12~~~-----10~~~-8~~~~-10--|
E -----------------14~~~-------------------------------------------|
B -------------14--------12~~~-14----------------------------------|
F#---------------------------------------------7-------------------|
B -----------------------------------------------------------------|

===================================================================

Guitar 1
C#|-----------------------------------------------------------------|
G#|-----------------------------------------------------------------|
E |---------------------------------9-9-9-9-9-9-9-9-9-9-9-9-9-9-----|
B |-9-9-9-9-9-9-9-9-9-9-9-9-9-9-9-9---------------------------------|
F#|-----------------------------------------------------------------|
B |-----------------------------------------------------------------|

Guitar 2
C#|-----------------------------------------------------------------|
G#|-13~~~-12~~~---------------------13~~~-12~~~-----12--------------|
E |-----------------14~~~-----------------------14------------------|
B |-------------14--------12~~~-14----------------------------------|
F#|-----------------------------------------------------------------|
B |-----------------------------------------------------------------|

===================================================================
===================================================================


[Chorus 2]

Guitar 1
C#|-----------------------------------------------------------------|
G#|-----------------------------------------------------------------|
E |-2---2---2---2---2---2---2---2-----------------------------------|
B |-2---2---2---2---2---2---2---2---3---3---3---3---3---3---3---3---|
F#|-0---0---0---0---0---0---0---0---3---3---3---3---3---3---3---3---|
B |---------------------------------3---3---3---3---3---3---3---3---|

Guitar 2
C#|-----------------------------------------------------------------|
G#|-13--13--13--13--13--13--13--13--10--10--10--10--10--10--10--10--|
E |-x---x---x---x---x---x---x---x---x---x---x---x---x---x---x---x---|
B |-10--10--10--10--10--10--10--10--7---7---7---7---7---7---7---7---|
F#|-----------------------------------------------------------------|
B |-----------------------------------------------------------------|

===================================================================

Guitar 1
C#|-----------------------------------------------------------------|
G#|-----------------------------------------------------------------|
E |-----------------------------------------------------------------|
B |-0---0---0---0---0---0---0---0---2---2---2---2---2---2---x-x-x-x-|
F#|-0---0---0---0---0---0---0---0---2---2---2---2---2---2---x-x-x-x-|
B |-0---0---0---0---0---0---0---0---2---2---2---2---2---2---x-x-x-x-|

Guitar 2
C#|-----------------------------------------------------------------|
G#|-----------------------------------------------------------------|
E |-10--10--10--10--10--10--10--10--9---9---7---7---5---5-----------|
B |-x---x---x---x---x---x---x---x---x---x---x---x---x---x---x-x-x-x-|
F#|-8---8---8---8---8---8---8---8---7---7---5---5---3---3---x-x-x-x-|
B |---------------------------------------------------------x-x-x-x-|

===================================================================

Guitar 1
C#|-----------------------------------------------------------------|
G#|-----------------------------------------------------------------|
E |-2---2---2---2---2---2---2---2-----------------------------------|
B |-2---2---2---2---2---2---2---2---3---3---3---3---3---3---3---3---|
F#|-0---0---0---0---0---0---0---0---3---3---3---3---3---3---3---3---|
B |---------------------------------3---3---3---3---3---3---3---3---|

Guitar 2
C#|-----------------------------------------------------------------|
G#|-13--13--13--13--13--13--13--13--10--10--10--10--10--10--10--10--|
E |-x---x---x---x---x---x---x---x---x---x---x---x---x---x---x---x---|
B |-10--10--10--10--10--10--10--10--7---7---7---7---7---7---7---7---|
F#|-----------------------------------------------------------------|
B |-----------------------------------------------------------------|

===================================================================

Guitar 1
C#|-----------------------------------------------------------------|
G#|-----------------------------------------------------------------|
E |-----------------------------------------------------------------|
B |-0---0---0---0---0---0---0---0---2---2---2---2---2---2---2---2---|
F#|-0---0---0---0---0---0---0---0---2---2---2---2---2---2---2---2---|
B |-0---0---0---0---0---0---0---0---2---2---2---2---2---2---2---2---|

Guitar 2
C#|-----------------------------------------------------------------|
G#|-----------------------------------------------------------------|
E |-10--10--10--10--10--10--10--10--13--13--13--13--13--13--13--13--|
B |-x---x---x---x---x---x---x---x---x---x---x---x---x---x---x---x---|
F#|-8---8---8---8---8---8---8---8---11--11--11--11--11--11--11--11--|
B |-----------------------------------------------------------------|

===================================================================

Guitar 1
C#|-----------------------------------------------------------------|
G#|-----------------------------------------------------------------|
E |-----------------------------------------------------------------|
B |-----------------10~~~-9~~~~-7-------------------9~~~~-----------|
F#|-------------7-------------------------------7---------7~~~~-3---|
B |-7~~~~~~~~~~---------------------6~~~~~~~~~~---------------------|

Guitar 2
C#|-------------------------------------------------|
G#|-17----15-17----15-17----------------------------|
E |-------------------------19----17-19----17-19----|
B |----14-------14-------14----14-------14-------14-|
F#|-------------------------------------------------|
B |-------------------------------------------------|

Guitar 2 continued
C#|-------------------------------------------------|
G#|-------------------------------------------------|
E |-17----16-17----16-17----16----14-16----14-16----|
B |----14-------14-------14----14-------14-------14-|
F#|-------------------------------------------------|
B |-------------------------------------------------|

===================================================================

Guitar 1
C#|-----------------------------------------------------------------|
G#|-----------------------------------------------------------------|
E |-----------------7~~~~~~~~~~~~~~-----------------7~~~~-----------|
B |---------------------------------------6~~~~-9---------10~~~-9---|
F#|-5~~~~~~~~~~~~~~-----------------7~~~~---------------------------|
B |-----------------------------------------------------------------|

Guitar 2
C#|-------------------------------------------------|
G#|-17----15-17----15-17----------------------------|
E |-------------------------19----17-19----17-19----|
B |----14-------14-------14----14-------14-------14-|
F#|-------------------------------------------------|
B |-------------------------------------------------|

Guitar 2 continued
C#|-------------------------------------------------|
G#|-------------------------------------------------|
E |-17----16-17----16-17----16----14-16----14-16----|
B |----14-------14-------14----14-------14-------14-|
F#|-------------------------------------------------|
B |-------------------------------------------------|

===================================================================

Guitar 1
C#|-----------------------------------------------------------------|
G#|-----------------------------------------------------------------|
E |-2---2---2---2---2---2---2---2-----------------------------------|
B |-2---2---2---2---2---2---2---2---3---3---3---3---3---3---3---3---|
F#|-0---0---0---0---0---0---0---0---3---3---3---3---3---3---3---3---|
B |---------------------------------3---3---3---3---3---3---3---3---|

Guitar 2
C#|-------------------------------------------------|
G#|-17----15-17----15-17----------------------------|
E |-------------------------19----17-19----17-19----|
B |----14-------14-------14----14-------14-------14-|
F#|-------------------------------------------------|
B |-------------------------------------------------|

Guitar 2 continued
C#|-------------------------------------------------|
G#|-------------------------------------------------|
E |-17----16-17----16-17----16----14-16----14-16----|
B |----14-------14-------14----14-------14-------14-|
F#|-------------------------------------------------|
B |-------------------------------------------------|

===================================================================

Guitar 1
C#|-----------------------------------------------------------------|
G#|-----------------------------------------------------------------|
E |---------------------------------4h5p4---4h5p4---4h5p4---4h5p4---|
B |-0---0---0---0---0---0---0---0---------7-------7-------7-------7-|
F#|-0---0---0---0---0---0---0---0-----------------------------------|
B |-0---0---0---0---0---0---0---0-----------------------------------|

Guitar 2
C#-------------------------------------------------|
G#-------------------------------------------------|
E -17----16-17----16-17----19----17-19----17-19----|
B ----14-------14-------14----14-------14-------14-|
F#-------------------------------------------------|
B -------------------------------------------------|

Guitar 2 continued
C#|-------------------------------------------------|
G#|-------------------------------------------------|
E |-14-14-14-14-16-16-16-16-17-17-17-17-19-19-19-19-|
B |-------------------------------------------------|
F#|-------------------------------------------------|
B |-------------------------------------------------|

===================================================================

Guitar 1
C#|-----------------------------------------------------------------|
G#|-----------------------------------------------------------------|
E |-4h5p4---4h5p4---4h5p4---4h5p4-----------------------------------|
B |-------7-------7-------7-------7-2-2-2-2-2-2-2-2-2-2-2-2-2-2-2-2-|
F#|---------------------------------2-2-2-2-2-2-2-2-2-2-2-2-2-2-2-2-|
B |---------------------------------2-2-2-2-2-2-2-2-2-2-2-2-2-2-2-2-|
Pm                                 . . . . . . . . . . . . . . . .

Guitar 2
C#-------------------------19-19-19-19-22-22-22-22-|
G#-17-17-17-17-21-21-21-21-------------------------|
E -------------------------------------------------|
B -------------------------------------------------|
F#-------------------------------------------------|
B -------------------------------------------------|

Guitar 2 continued
C#|---------------------------------|
G#|---------------------------------|
E |---------------------------------|
B |-2-2-2-2-2-2-2-2-2-2-2-2-2-2-2-2-|
F#|-2-2-2-2-2-2-2-2-2-2-2-2-2-2-2-2-|
B |-2-2-2-2-2-2-2-2-2-2-2-2-2-2-2-2-|
 Pm . . . . . . . . . . . . . . . .

===================================================================

Guitar 1 & 2
C#|-----------------------------------------------------------------|
G#|-----------------------------------------------------------------|
E |-----------------------------------------------------------------|
B |-2~~~~~~~~~~~~~~~~~~~~~~~~~~~~~~---------------------------------|
F#|-2~~~~~~~~~~~~~~~~~~~~~~~~~~~~~~---------------------------------|
B |-2~~~~~~~~~~~~~~~~~~~~~~~~~~~~~~---------------------------------|

===================================================================
===================================================================


Interlude

Guitar 1
C#|-----------------------------------------------------------------|
G#|-----------------------------------------------------------------|
E |-----------------2-----------------------------------------------|
B |-----------------2-----------------------------------------------|
F#|-0-0-0-0-0-0-0-0-0-----------------------------------------------|
B |-----------------------------------------------------------------|
 Pm . . . . . . . .

Guitar 2
C#|------------------------------------------------------------------|
G#|------------------------------------------------------------------|
E |-14~~~~~-17~~~~~-16~~~~~-17~~~~~-14~~~~~-17~~~~~-16~~~~~-17~~~~~~-|
B |-----14~~~~~-14~~~~~-14~~~~~-14~~~~~-14~~~~~-14~~~~~-14~~~~~-14~~-|
F#|------------------------------------------------------------------|
B |------------------------------------------------------------------|

===================================================================

Guitar 1
C#|-----------------------------------------------------------------|
G#|-----------------------------------------------------------------|
E |-----------------2-----------------------------------------------|
B |-----------------2-----------------------------------------------|
F#|-0-0-0-0-0-0-0-0-0-----------------------------------------------|
B |-----------------------------------------------------------------|
 Pm . . . . . . . .

Guitar 2
C#|-----------------------------------------------------------------|
G#|-----------------------------------------------------------------|
E |-14~~~~~-17~~~~~-16~~~~~-17~~~~~-14~~~~~-17----------------------|
B |-~~~-14~~~~~-14~~~~~-14~~~~~-14~~~~~-14~~~~~-14--14~~~~~-13~~~~~-|
F#|-----------------------------------------------------------------|
B |-----------------------------------------------------------------|

===================================================================

Guitar 1
C#|-----------------------------------------------------------------|
G#|-----------------------------------------------------------------|
E |-----------------------------------------------------------------|
B |-----------------7-----------------------------------------------|
F#|-----------------3-----------------------------------------------|
B |-3-3-3-3-3-3-3-3-3-----------------------------------------------|
 Pm . . . . . . . .

Guitar 2
C#|-----------------------------------------------------------------|
G#|-----------------------------------------------------------------|
E |-----9~~-10~-9~~~~~~-9~~-10~-9~~~~~~-9~~-10~-9~~~~~~-9~~-10~-9~~-|
B |-12~~~~~~~~~~~~~-12~~~~~~~~~~~~~-12~~~~~~~~~~~~~-12~~~~~~~~~~~~~-|
F#|-----------------------------------------------------------------|
B |-----------------------------------------------------------------|

===================================================================

Guitar 1
C#|-----------------------------------------------------------------|
G#|-----------------------------------------------------------------|
E |-----------------------------------------------------------------|
B |-----------------9-----------------------------------------------|
F#|-----------------6-----------------------------------------------|
B |-6-6-6-6-6-6-6-6-6-----------------------------------------------|
 Pm . . . . . . . .

Guitar 2
C#|-----------------------------------------------------------------|
G#|-----------------12~~~~~-----------------------------------------|
E |-----10~-13~-------------13~-10~~~~~-10~-13~-10~~~~~-10~-13~-10~-|
B |-12~~~~~~~~~-12~~~~~-12~~~~~~~~~-12~~~~~~~~~~~~~-12~~~~~~~~~~~~~-|
F#|-----------------------------------------------------------------|
B |-----------------------------------------------------------------|

===================================================================

Guitar 1
C#|-----------------------------------------------------------------|
G#|-----------------------------------------------------------------|
E |-----------------2-------------------2---2-----------2---2-------|
B |-----------------2-------------------2---2-----------2---2-------|
F#|-0-0-0-0-0-0-0-0-0-------------------0---0-----------0---0-------|
B |-----------------------------------------------------------------|
 Pm . . . . . . . .                     .   .           .   .

Guitar 2
C#|------------------------------------------------------------------|
G#|------------------------------------------------------------------|
E |-14~~~~~-17~~~~~-16~~~~~-17~~~~~-14~~~~~-17~~~~~-16~~~~~-17~~~~~~-|
B |-----14~~~~~-14~~~~~-14~~~~~-14~~~~~-14~~~~~-14~~~~~-14~~~~~-14~~-|
F#|------------------------------------------------------------------|
B |------------------------------------------------------------------|

===================================================================

Guitar 1
C#|-----------------------------------------------------------------|
G#|-----------------------------------------------------------------|
E |-----------------2-------------------2---2-----------------------|
B |-----------------2-------------------2---2-------2~~~~~~-5*~~~~~-|
F#|-0-0-0-0-0-0-0-0-0-------------------0---0-----------------------|
B |-----------------------------------------------------------------|
 Pm . . . . . . . .                     .   .

Guitar 2
C#|-----------------------------------------------------------------|
G#|-----------------------------------------------------------------|
E |-14~~~~~-17~~~~~-16~~~~~-17~~~~~-14~~~~~-17----------------------|
B |-~~~-14~~~~~-14~~~~~-14~~~~~-14~~~~~-14~~~~~-14--14~~~~~-13~~~~~-|
F#|-----------------------------------------------------------------|
B |-----------------------------------------------------------------|

===================================================================

Guitar 1
C#|-----------------------------------------------------------------|
G#|-----------------------------------------------------------------|
E |-----------------------------------------------------------------|
B |-----------------7-------------------7---7-----------7---7-------|
F#|-----------------3-------------------3---3-----------3---3-------|
B |-3-3-3-3-3-3-3-3-3-------------------3---3-----------3---3-------|
 Pm . . . . . . . .                     .   .           .   .

Guitar 2
C#|-----------------------------------------------------------------|
G#|-----------------------------------------------------------------|
E |-----9~~-10~-9~~~~~~-9~~-10~-9~~~~~~-9~~-10~-9~~~~~~-9~~-10~-9~~-|
B |-12~~~~~~~~~~~~~-12~~~~~~~~~~~~~-12~~~~~~~~~~~~~-12~~~~~~~~~~~~~-|
F#|-----------------------------------------------------------------|
B |-----------------------------------------------------------------|

===================================================================

Guitar 1
C#|-----------------------------------------------------------------|
G#|-----------------------------------------------------------------|
E |-------------------------------------------------7~~~~~~~~~~~~~~-|
B |-----------------9---------------9~~~~~~~~~~~~~~-x---------------|
F#|-----------------6---------------6~~~~~~~~~~~~~~-6~~~~~~~~~~~~~~-|
B |-6-6-6-6-6-6-6-6-6---------------6~~~~~~~~~~~~~~-6~~~~~~~~~~~~~~-|
 Pm . . . . . . . .

Guitar 2
C#|-----------------------------------------------------------------|
G#|-----------------12~~~~~-----------------------------------------|
E |-----10~-13~-------------13~-10~~~~~-10~-13~-10~~~~~-10~-13~-10~-|
B |-12~~~~~~~~~-12~~~~~-12~~~~~~~~~-12~~~~~~~~~~~~~-12~~~~~~~~~~~~~-|
F#|-----------------------------------------------------------------|
B |-----------------------------------------------------------------|

===================================================================
===================================================================


Bridge

Guitar 2
C#|------------------------------------------------------------------|
G#|------------------------------------------------------------------|
E |---------------------------------10-10-10-10-10-10-10-10-10-10-10-|
B |-7-7-7-7-7-7-7-7-7-7-7-7-7-7-7-7----------------------------------|
F#|------------------------------------------------------------------|
B |------------------------------------------------------------------|

===================================================================

Guitar 2
C#|------------------------------------------------------------------|
G#|------------------------------------------------------------------|
E |---------------------------------9-9-9-9-7-7-7-7------------------|
B |-9-9-9-9-9-9-9-9-9-9-9-9-9-9-9-9-----------------10-10-10-9-9-9-9-|
F#|------------------------------------------------------------------|
B |------------------------------------------------------------------|

===================================================================

Guitar 1
C#|-----------------------------------------------------------------|
G#|-----------------------------------------------------------------|
E |-2~~~~~~~~~~~~~~~~~~~~~~~~~~~~~~---------------------------------|
B |-2~~~~~~~~~~~~~~~~~~~~~~~~~~~~~~-3~~~~~~~~~~~~~~~~~~~~~~~~~~~~~~-|
F#|-0~~~~~~~~~~~~~~~~~~~~~~~~~~~~~~-3~~~~~~~~~~~~~~~~~~~~~~~~~~~~~~-|
B |---------------------------------3~~~~~~~~~~~~~~~~~~~~~~~~~~~~~~-|

Guitar 2
C#|------------------------------------------------------------------|
G#|------------------------------------------------------------------|
E |---------------------------------10-10-10-10-10-10-10-10-10-10-10-|
B |-7-7-7-7-7-7-7-7-7-7-7-7-7-7-7-7----------------------------------|
F#|------------------------------------------------------------------|
B |------------------------------------------------------------------|

===================================================================

Guitar 1
C#|-----------------------------------------------------------------|
G#|-----------------------------------------------------------------|
E |---------------------------------9-9-9-9-9-9-9-9-9-9-9-9-9-------|
B |-2~~~~~~~~~~~~~~~~~~~~~~~~~~~~~~-x-x-x-x-x-x-x-x-x-x-x-x-x-------|
F#|-2~~~~~~~~~~~~~~~~~~~~~~~~~~~~~~-7-7-7-7-7-7-7-7-7-7-7-7-7-------|
B |-2~~~~~~~~~~~~~~~~~~~~~~~~~~~~~~---------------------------------|

Guitar 2
C#|-----------------------------------------------------------------|
G#|-----------------------------------------------------------------|
E |---------------------------------9-9-9-9-9-9-9-9-9-9-9-9-9-------|
B |-9-9-9-9-9-9-9-9-9-9-9-9-9-9-9-9---------------------------------|
F#|-----------------------------------------------------------------|
B |-----------------------------------------------------------------|

===================================================================
===================================================================


[Chorus 3]

Guitar 1
C#|-----------------------------------------------------------------|
G#|-----------------------------------------------------------------|
E |-2---2---2---2---2---2---2---2-----------------------------------|
B |-2---2---2---2---2---2---2---2---3---3---3---3---3---3---3---3---|
F#|-0---0---0---0---0---0---0---0---3---3---3---3---3---3---3---3---|
B |---------------------------------3---3---3---3---3---3---3---3---|

Guitar 2
C#|-----------------------------------------------------------------|
G#|-13--13--13--13--13--13--13--13--10--10--10--10--10--10--10--10--|
E |-x---x---x---x---x---x---x---x---x---x---x---x---x---x---x---x---|
B |-10--10--10--10--10--10--10--10--7---7---7---7---7---7---7---7---|
F#|-----------------------------------------------------------------|
B |-----------------------------------------------------------------|

===================================================================

Guitar 1
C#|-----------------------------------------------------------------|
G#|-----------------------------------------------------------------|
E |-----------------------------------------------------------------|
B |-0---0---0---0---0---0---0---0---2---2---2---2---2---2---x-x-x-x-|
F#|-0---0---0---0---0---0---0---0---2---2---2---2---2---2---x-x-x-x-|
B |-0---0---0---0---0---0---0---0---2---2---2---2---2---2---x-x-x-x-|

Guitar 2
C#|-----------------------------------------------------------------|
G#|-----------------------------------------------------------------|
E |-10--10--10--10--10--10--10--10--9---9---7---7---5---5-----------|
B |-x---x---x---x---x---x---x---x---x---x---x---x---x---x---x-x-x-x-|
F#|-8---8---8---8---8---8---8---8---7---7---5---5---3---3---x-x-x-x-|
B |---------------------------------------------------------x-x-x-x-|

===================================================================

Guitar 1
C#|-----------------------------------------------------------------|
G#|-----------------------------------------------------------------|
E |-2---2---2---2---2---2---2---2-----------------------------------|
B |-2---2---2---2---2---2---2---2---3---3---3---3---3---3---3---3---|
F#|-0---0---0---0---0---0---0---0---3---3---3---3---3---3---3---3---|
B |---------------------------------3---3---3---3---3---3---3---3---|

Guitar 2
C#|-----------------------------------------------------------------|
G#|-13--13--13--13--13--13--13--13--10--10--10--10--10--10--10--10--|
E |-x---x---x---x---x---x---x---x---x---x---x---x---x---x---x---x---|
B |-10--10--10--10--10--10--10--10--7---7---7---7---7---7---7---7---|
F#|-----------------------------------------------------------------|
B |-----------------------------------------------------------------|

===================================================================

Guitar 1
C#|-----------------------------------------------------------------|
G#|-----------------------------------------------------------------|
E |-----------------------------------------------------------------|
B |-0---0---0---0---0---0---0---0---2---2---2---2---2---2---2---2---|
F#|-0---0---0---0---0---0---0---0---2---2---2---2---2---2---2---2---|
B |-0---0---0---0---0---0---0---0---2---2---2---2---2---2---2---2---|

Guitar 2
C#|-----------------------------------------------------------------|
G#|-----------------------------------------------------------------|
E |-10--10--10--10--10--10--10--10--13--13--13--13--13--13--13--13--|
B |-x---x---x---x---x---x---x---x---x---x---x---x---x---x---x---x---|
F#|-8---8---8---8---8---8---8---8---11--11--11--11--11--11--11--11--|
B |-----------------------------------------------------------------|

===================================================================

Guitar 1
C#|-----------------------------------------------------------------|
G#|-----------------------------------------------------------------|
E |-----------------------------------------------------------------|
B |-----------------10~~~-9~~~~-7-------------------9~~~~-----------|
F#|-------------7-------------------------------7---------7~~~~-3---|
B |-7~~~~~~~~~~---------------------6~~~~~~~~~~---------------------|

Guitar 2
C#|-------------------------------------------------|
G#|-17----15-17----15-17----------------------------|
E |-------------------------19----17-19----17-19----|
B |----14-------14-------14----14-------14-------14-|
F#|-------------------------------------------------|
B |-------------------------------------------------|

Guitar 2 continued
C#|-------------------------------------------------|
G#|-------------------------------------------------|
E |-17----16-17----16-17----16----14-16----14-16----|
B |----14-------14-------14----14-------14-------14-|
F#|-------------------------------------------------|
B |-------------------------------------------------|

===================================================================

Guitar 1
C#|-----------------------------------------------------------------|
G#|-----------------------------------------------------------------|
E |-----------------7~~~~~~~~~~~~~~-----------------7~~~~-----------|
B |---------------------------------------6~~~~-9---------10~~~-9---|
F#|-5~~~~~~~~~~~~~~-----------------7~~~~---------------------------|
B |-----------------------------------------------------------------|

Guitar 2
C#|-------------------------------------------------|
G#|-17----15-17----15-17----------------------------|
E |-------------------------19----17-19----17-19----|
B |----14-------14-------14----14-------14-------14-|
F#|-------------------------------------------------|
B |-------------------------------------------------|

Guitar 2 continued
C#|-------------------------------------------------|
G#|-------------------------------------------------|
E |-17----16-17----16-17----16----14-16----14-16----|
B |----14-------14-------14----14-------14-------14-|
F#|-------------------------------------------------|
B |-------------------------------------------------|

===================================================================

Guitar 1
C#|-----------------------------------------------------------------|
G#|-----------------------------------------------------------------|
E |-2---2---2---2---2---2---2---2-----------------------------------|
B |-2---2---2---2---2---2---2---2---3---3---3---3---3---3---3---3---|
F#|-0---0---0---0---0---0---0---0---3---3---3---3---3---3---3---3---|
B |---------------------------------3---3---3---3---3---3---3---3---|

Guitar 2
C#|-------------------------------------------------|
G#|-17----15-17----15-17----------------------------|
E |-------------------------19----17-19----17-19----|
B |----14-------14-------14----14-------14-------14-|
F#|-------------------------------------------------|
B |-------------------------------------------------|

Guitar 2 continued
C#|-------------------------------------------------|
G#|-------------------------------------------------|
E |-17----16-17----16-17----16----14-16----14-16----|
B |----14-------14-------14----14-------14-------14-|
F#|-------------------------------------------------|
B |-------------------------------------------------|

===================================================================

Guitar 1
C#|-----------------------------------------------------------------|
G#|-----------------------------------------------------------------|
E |---------------------------------4h5p4---4h5p4---4h5p4-----------|
B |-0---0---0---0---0---0---0---0---------7-------7-------7---------|
F#|-0---0---0---0---0---0---0---0-----------------------------------|
B |-0---0---0---0---0---0---0---0---------------------------17\~~~~-|

Guitar 2
C#|-------------------------------------------------|
G#|-------------------------------------------------|
E |-17----16-17----16-17----19----17-19----17-19----|
B |----14-------14-------14----14-------14-------14-|
F#|-------------------------------------------------|
B |-------------------------------------------------|

Guitar 2 continued
C#|-------------------------------------------------|
G#|-------------------------------------------------|
E |-14-14-14-14-16-16-16-16-17-17-17-17-------------|
B |-------------------------------------------------|
F#|-------------------------------------------------|
B |-------------------------------------17\~~~~~~~~-|

===================================================================
===================================================================


Outro

Guitar 1
C#|------------------------------------------------------------------|
G#|------------------------------------------------------------------|
E |---------------------------------10-10-10-10-10-10-10-10-10-10-10-|
B |-7-7-7-7-7-7-7-7-7-7-7-7-7-7-7-7----------------------------------|
F#|------------------------------------------------------------------|
B |------------------------------------------------------------------|

Guitar 2
C#|-------------------------------------------------|
G#|-18-18-18-18-17-17-17-17-18-18-18-18-17-17-17-17-|
E |-------------------------------------------------|
B |-------------------------------------------------|
F#|-------------------------------------------------|
B |-------------------------------------------------|

Guitar 2 continued
C#|-------------------------------------------------|
G#|-------------------------------------17-17-17-17-|
E |-19-19-19-19-17-17-17-17-19-19-19-19-------------|
B |-------------------------------------------------|
F#|-------------------------------------------------|
B |-------------------------------------------------|
        
===================================================================

Guitar 1
C#|------------------------------------------------------------------|
G#|------------------------------------------------------------------|
E |---------------------------------9-9-9-9-7-7-7-7------------------|
B |-9-9-9-9-9-9-9-9-9-9-9-9-9-9-9-9-----------------10-10-10-9-9-9-9-|
F#|------------------------------------------------------------------|
B |------------------------------------------------------------------|

Guitar 2
C#|-------------------------------------------------|
G#|-18-18-18-18-17-17-17-17-18-18-18-18-17-17-17-17-|
E |-------------------------------------------------|
B |-------------------------------------------------|
F#|-------------------------------------------------|
B |-------------------------------------------------|

Guitar 2 continued
C#|-------------------------------------------------|
G#|-------------------------------------------------|
E |-19-19-19-19-17-17-17-17-16-16-16-16-17-17-17-17-|
B |-------------------------------------------------|
F#|-------------------------------------------------|
B |-------------------------------------------------|

===================================================================

Guitar 1
C#|------------------------------------------------------------------|
G#|------------------------------------------------------------------|
E |---------------------------------10-10-10-10-10-10-10-10-10-10-10-|
B |-7-7-7-7-7-7-7-7-7-7-7-7-7-7-7-7----------------------------------|
F#|------------------------------------------------------------------|
B |------------------------------------------------------------------|

Guitar 2
C#|-------------------------------------------------|
G#|-18-18-18-18-17-17-17-17-18-18-18-18-17-17-17-17-|
E |-------------------------------------------------|
B |-------------------------------------------------|
F#|-------------------------------------------------|
B |-------------------------------------------------|

Guitar 2 continued
C#|-------------------------------------------------|
G#|-------------------------------------17-17-17-17-|
E |-19-19-19-19-17-17-17-17-19-19-19-19-------------|
B |-------------------------------------------------|
F#|-------------------------------------------------|
B |-------------------------------------------------|

===================================================================

Guitar 1
C#|-------------------------------------------------------------------|
G#|-------------------------------------------------------------------|
E |-------------------------------------------------------------------|
B |-9-9-9-9-9-9-9-9-9-9-9-9-9-9-9-9-3-3-3-3-2-2-2-2-1-1-1-1-0-0-0-0\~-|
F#|---------------------------------3-3-3-3-2-2-2-2-1-1-1-1-0-0-0-0\~-|
B |---------------------------------3-3-3-3-2-2-2-2-1-1-1-1-0-0-0-0\~-|
 Pm                                 . . . . . . . . . . . . . . . .

Guitar 2
C#|-------------------------------------------------|
G#|-18-18-18-18-17-17-17-17-18-18-18-18-17-17-17-17-|
E |-------------------------------------------------|
B |-------------------------------------------------|
F#|-------------------------------------------------|
B |-------------------------------------------------|

Guitar 2 continued
C#|-----------------------------------|
G#|-----------------------------------|
E |-----------------------------------|
B |-3-3-3-3-2-2-2-2-1-1-1-1-0-0-0-0\~-|
F#|-3-3-3-3-2-2-2-2-1-1-1-1-0-0-0-0\~-|
B |-3-3-3-3-2-2-2-2-1-1-1-1-0-0-0-0\~-|
 Pm . . . . . . . . . . . . . . . .

===================================================================
===================================================================
===================================================================


************************************

|h    hammer on
|p    pull off
|/    slide up
|\    slide down
|ps/  pickslide up
|ps\  pickslide down
|~    let ring
|pm.  palm mute
|b    bend
|r    return from bend
|t    finger tapping
|*    harmonic
|x    dead note
|^    Whammy bar
|^\   Whammy bar (hold down)

************************************
Suggest correction
What's this?
You can suggest a correction to this tab. Community and Mods will review your correction and vote to approve or reject it.
comments
print report bad tab
5 comments total. Showing first comments.
0 reply
Requiem09 13 wrote on August 2 2012, 09:30 pm

Hey dude, sick tab! could you tab A Match Into Water?

0 reply
brownmatthall 22 wrote on October 9 2012, 12:41 pm

the songs actually in C# standard which is essentially dropped B with the lowest string in C# so you could actually play through if you wanted

0 reply
fruitloop993 78 wrote on August 22 2014, 08:47 pm

Awesome tab! I don't know why this doesn't have 5 stars!

guest
You may want to rate the tab now too:
select rating
Please do not post tabs as comments. Select "correction" instead!