Oops, an error
Loading. Please wait.

Hold On Till May Acoustic Tab

version 2
version 2

Solo

Whole song

Interactive

9,145 views 54 this week
1 commentread comment
1 2 3 4 5
excellent!
x 6
add to favorites
launch autoscroll
font size
0
reset
how to read this tab
guitar tuner
Tab Pro tools
  • play this tab
  • loop segment
  • change instrument
  • show fretboard
  • metronome
Autoscroll
slow
fast
+/-
esc
set tempo
stop
Contributor
Tuning
D# G# C# F# A# D#
Hold On Till May Acoustic Solo Tab By NickFrangos.

The first note is played over and over. Just listen to the song for timing.

Eb|-4----2----------------------------------------9-12-11-9-----------------|
Bb|--------5-4-5-7-------------------------------9----------9-10/12-10-9--9-|
Gb|----------------8-----9-11-9-8-9-8-----------9-----------------------11--|
Db|------------------9---------------9/11\9----9----------------------------|
Ab|-------------------------------------------------------------------------|
Eb|-------------------------------------------------------------------------|

Eb|-------------------------------------------------------------------------|
Bb|--9h10p9--------------------5-5-5-4-4-4-2-2------------------------------|
Gb|---------------------4------6-6-6-4-4-4-4-4-4----------------------------|
Db|------------2-2-2-4/6-6-4-2----------------2-----------------------------|
Ab|-----------4-4-4---------------------------------------------------------|
Eb|-------------------------------------------------------------------------|


Tab Legend
h  - hammer-on
p  - pull-off
/  - slide up
\  - slide down

This is my first tab so if you find any corrections or problems email me at 
nickfrangos@hotmail.com. Thanks.
comments
print report bad tab
1 comment total.
0 reply
iimzsobrookly wrote on October 5 2013, 09:07 pm

at this part:
Eb|--------------------------------
Bb|--9h10p9-----------------------5
Gb|---------------------4-4-------6
Db|------------2-2-4/6-6-6-4-2---
Ab|-----------4-4----------------
Eb|--------------------------------
i think it goes 4,2 and 6,4,6 twice. i could b wrong.

I want to post or [tab]
guest
You may want to rate the tab now too:
select rating
Please do not post tabs as comments. Select "correction" instead!