Oops, an error
Loading. Please wait.

Im Low On Gas And You Need A Jacket Tab

version 2
version 2

Acoustic

  • This tab is extremely accurate. This will make you... Show more

Whole song

283 views 21 this week
1 commentread comment
1 2 3 4 5
x 6
add to favorites
launch autoscroll
font size
0
reset
how to read this tab
guitar tuner
Autoscroll
slow
fast
+/-
esc
set tempo
stop
Help us to improve Ultimate-Guitar.com Take our survey!
×
Author
Difficulty
Tuning
intermediate
C# G# C# F# A# D#
About this tab version
This tab is extremely accurate. This will make you happier than you've ever been in your life. It will give you a warm feeling of bliss. Was this info helpful? Yes No
"I'm Low On Gas And You Need A Jacket" (Acoustic Version) 
Tabs by "Pierce The Vegan" and "Beverly Valley" (same person) on YouTube:
Pierce The Vegan - https://www.youtube.com/channel/UC3c-1ZDochB5sX-EMVW4PxQ
Beverly Valley - https://www.youtube.com/channel/UCb75kwZnHUZ9O7YzbRxzCpA


TUNING: DROP C#

LEGEND:
************************************

| /         Slide up
| \         Slide down
| h         Hammer-on
| p         Pull-off
| p         ("p" also means "palm mute" if it's directly under a tab chart)
| ~         Let note ring ("~" usually means "vibrato," but not for this tab)
| [ ]       Natural harmonic
| [+ ]      Pinch harmonic
| ( )       Indicates notes on the 10th fret or higher when necessary
| |L-O-O-P| Indicates when specific tab charts contain select sets of notes that essentially repeat themselves
| &     Indicates when select tab charts are a pair whenever they have to be broken up for various reasons

************************************



[Intro]

   |--8 strums---| |--8 strums---|                     |--8 strums---|
D#|0-0-0-0-0-0-0-0~0-0-0-0-0-0-0-0~0--0--0--0~~0-0-0-0~0-0-0-0-0-0-0-0------------|
A#|0-0-0-0-0-0-0-0~0-0-0-0-0-0-0-0~0--0--0--0~~0-0-0-0~0-0-0-0-0-0-0-0------------|
F#|7-7-7-7-7-7-7-7\6-6-6-6-6-6-6-6/11-11-11-11\6-6-6-6\4-4-4-4-4-4-4-4------------|  2x
C#|0-0-0-0-0-0-0-0\0-0-0-0-0-0-0-0/0--0--0--0-\0-0-0-0\0-0-0-0-0-0-0-0------------|
G#|9-9-9-9-9-9-9-9\7-7-7-7-7-7-7-7/12-12-12-12\7-7-7-7\5-5-5-5-5-5-5-5------------|
C#|9-9-9-9-9-9-9-9\7-7-7-7-7-7-7-7/12-12-12-12\7-7-7-7\5-5-5-5-5-5-5-5------------|



[Verse]

"As I choke - 'tried to wash you down with something strong..."
   |--8 strums---| |------8 strums------|  |4 strums|          |--8 strums---|
D#|0-0-0-0-0-0-0-0-0--0--0--0--0--0--0--0--0--0--0--0--0-0-0-0-0-0-0-0-0-0-0-0---|
A#|0-0-0-0-0-0-0-0-0--0--0--0--0--0--0--0--0--0--0--0--0-0-0-0-0-0-0-0-0-0-0-0---|
F#|7-7-7-7-7-7-7-7/9--9--9--9--9--9--9--9-/11-11-11-11\6-6-6-6\4-4-4-4-4-4-4-4---|
C#|0-0-0-0-0-0-0-0-0--0--0--0--0--0--0--0--0--0--0--0--0-0-0-0-0-0-0-0-0-0-0-0---|
G#|9-9-9-9-9-9-9-9/12-12-12-12-12-12-12-12-12-12-12-12\7-7-7-7\5-5-5-5-5-5-5-5---|
C#|9-9-9-9-9-9-9-9/11-11-11-11-11-11-11-11/12-12-12-12\7-7-7-7\5-5-5-5-5-5-5-5---|
   p p   p p p   p p  p     p  p  p     p  p  p     p  p p   p p p   p p p   p
    
  "Tried, but the taste of blood remains..."
   |--8 strums---| |------8 strums------|  |------8 strums------|  |--8 strums---|
D#|0-0-0-0-0-0-0-0-0--0--0--0--0--0--0--0--0--0--0--0--0--0--0--0--0-0-0-0-0-0-0-0---|
A#|0-0-0-0-0-0-0-0-0--0--0--0--0--0--0--0--0--0--0--0--0--0--0--0--0-0-0-0-0-0-0-0---|
F#|7-7-7-7-7-7-7-7/9--9--9--9--9--9--9--9-/11-11-11-11-11-11-11-11\4-4-4-4-4-4-4-4---|
C#|0-0-0-0-0-0-0-0-0--0--0--0--0--0--0--0--0--0--0--0--0--0--0--0--0-0-0-0-0-0-0-0---|
G#|9-9-9-9-9-9-9-9/12-12-12-12-12-12-12-12-12-12-12-12-12-12-12-12\5-5-5-5-5-5-5-5---|
C#|9-9-9-9-9-9-9-9/11-11-11-11-11-11-11-11/12-12-12-12-12-12-12-12\5-5-5-5-5-5-5-5---|
   p p   p p p   p p  p     p  p  p     p  p  p     p  p  p     p  p p   p p p   p

   "All these cold empty mattresses and falling stars..."
   |--8 strums---| |------8 strums------|  |4 strums|          |--8 strums---|
D#|0-0-0-0-0-0-0-0-0--0--0--0--0--0--0--0--0--0--0--0--0-0-0-0-0-0-0-0-0-0-0-0---|
A#|0-0-0-0-0-0-0-0-0--0--0--0--0--0--0--0--0--0--0--0--0-0-0-0-0-0-0-0-0-0-0-0---|
F#|7-7-7-7-7-7-7-7/9--9--9--9--9--9--9--9-/11-11-11-11\6-6-6-6\4-4-4-4-4-4-4-4---|
C#|0-0-0-0-0-0-0-0-0--0--0--0--0--0--0--0--0--0--0--0--0-0-0-0-0-0-0-0-0-0-0-0---|
G#|9-9-9-9-9-9-9-9/12-12-12-12-12-12-12-12-12-12-12-12\7-7-7-7\5-5-5-5-5-5-5-5---|
C#|9-9-9-9-9-9-9-9/11-11-11-11-11-11-11-11/12-12-12-12\7-7-7-7\5-5-5-5-5-5-5-5---|
   p p   p p p   p p  p     p  p  p     p  p  p     p  p p   p p p   p p p   p

   My, how they start to look the same..."
   |--8 strums---| |------8 strums------|  |------8 strums------|   5 strums
D#|0-0-0-0-0-0-0-0-0--0--0--0--0--0--0--0--0--0--0--0--0--0--0--0--0-0-0-0-0--|
A#|0-0-0-0-0-0-0-0-0--0--0--0--0--0--0--0--0--0--0--0--0--0--0--0--0-0-0-0-0--|
F#|7-7-7-7-7-7-7-7/9--9--9--9--9--9--9--9-/11-11-11-11-11-11-11-11\4-4-4-4-4--|
C#|0-0-0-0-0-0-0-0-0--0--0--0--0--0--0--0--0--0--0--0--0--0--0--0--0-0-0-0-0--|
G#|9-9-9-9-9-9-9-9/12-12-12-12-12-12-12-12-12-12-12-12-12-12-12-12\5-5-5-5-5--|
C#|9-9-9-9-9-9-9-9/11-11-11-11-11-11-11-11/12-12-12-12-12-12-12-12\5-5-5-5-5--|
   p p   p p p   p p  p     p  p  p     p  p  p  p  p  p  p  p  p

 


[Chorus]

......."So keep in happiness and torture me while I tell you let's..."
   |-----L----O----O----P------| |-----L----O----O----P------|
D#|0~~0-0-0~~0-0-0-0-0-0-0-0-0-0-0~~0-0-0~~0-0-0-0-0-0-0-0-0-0---|
A#|0~~0-0-0~~0-0-0-0-0-0-0-0-0-0-0~~0-0-0~~0-0-0-0-0-0-0-0-0-0---|
F#|7~~7-7-7~~7-7-7-3-3-3-3-3-3-3-7~~7-7-7~~7-7-7-3-3-3-3-3-3-3---|
C#|4~~4-4-4~~4-4-4-2-2-2-2-2-2-2-4~~4-4-4~~4-4-4-2-2-2-2-2-2-2---|
G#|5~~5-5-5~~5-5-5-4-4-4-4-4-4-4-5~~5-5-5~~5-5-5-4-4-4-4-4-4-4---|
C#|0~~0-0-0~~0-0-0-x-x-x-x-x-x-x-0~~0-0-0~~0-0-0-x-x-x-x-x-x-x---|

  "Go in style..."
D#|0-0-0-0-0-0-0-0-0-0-0-0-0-0-0-0-|
A#|0-0-0-0-0-0-0-0-0-0-0-0-0-0-0-0-|
F#|0-0-0-0-0-0-0-0-0-0-0-0-0-0-0-0-|
C#|0-0-0-0-0-0-0-0-0-0-0-0-0-0-0-0-|
G#|2-2-2-2-2-2-2-2-4-4-4-4-5-5-5-5-|
C#|5-5-5-5-5-5-5-5-5-5-5-5-5-5-5-5-|

......."A million hooks around a million ways to die - darling, it's..."
   |-----L----O----O----P------| |-----L----O----O----P------|
D#|0~~0-0-0~~0-0-0-0-0-0-0-0-0-0-0~~0-0-0~~0-0-0-0-0-0-0-0-0-0---|
A#|0~~0-0-0~~0-0-0-0-0-0-0-0-0-0-0~~0-0-0~~0-0-0-0-0-0-0-0-0-0---|
F#|7~~7-7-7~~7-7-7-3-3-3-3-3-3-3-7~~7-7-7~~7-7-7-3-3-3-3-3-3-3---|
C#|4~~4-4-4~~4-4-4-2-2-2-2-2-2-2-4~~4-4-4~~4-4-4-2-2-2-2-2-2-2---|
G#|5~~5-5-5~~5-5-5-4-4-4-4-4-4-4-5~~5-5-5~~5-5-5-4-4-4-4-4-4-4---|
C#|0~~0-0-0~~0-0-0-x-x-x-x-x-x-x-0~~0-0-0~~0-0-0-x-x-x-x-x-x-x---|

  "Cold outside...................Oh!..."
D#|0-0-0-0-0-0-0-0-0-0-0-0-0-0-0-0-|
A#|0-0-0-0-0-0-0-0-0-0-0-0-0-0-0-0-|
F#|0-0-0-0-0-0-0-0-0-0-0-0-0-0-0-0-|
C#|0-0-0-0-0-0-0-0-0-0-0-0-0-0-0-0-|
G#|2-2-2-2-2-2-2-2-4-4-4-4-5-5-5-5-|
C#|5-5-5-5-5-5-5-5-5-5-5-5-5-5-5-5-|



[Post Chorus]
                                                              (Play these last nine strums 
                                                                   at double the speed.)
   |--8 strums---| |--8 strums---|                          |--9 strums---|
D#|0-0-0-0-0-0-0-0-0-0-0-0-0-0-0-0-0--0--0--0--0-0-0-0-| & |0-0-0-0-0-0-0-0----------|
A#|0-0-0-0-0-0-0-0-0-0-0-0-0-0-0-0-0--0--0--0--0-0-0-0-| & |0-0-0-0-0-0-0-0----------|
F#|7-7-7-7-7-7-7-7\6-6-6-6-6-6-6-6/11-11-11-11\6-6-6-6-| & |4-4-4-4-4-4-4-4----------|
C#|0-0-0-0-0-0-0-0-0-0-0-0-0-0-0-0-0--0--0--0--0-0-0-0-| & |0-0-0-0-0-0-0-0----------|
G#|9-9-9-9-9-9-9-9\7-7-7-7-7-7-7-7/12-12-12-12\7-7-7-7-| & |5-5-5-5-5-5-5-5----------|
C#|9-9-9-9-9-9-9-9\7-7-7-7-7-7-7-7/12-12-12-12\7-7-7-7-| & |5-5-5-5-5-5-5-5----------|



[Verse 2]
  "No......no more eyes to see the sun......................so you..."
D#|0~~~~~~~~~~~~~~~0~~~~~~~~~~~~~~~0~~~~~~~~0~~~~~~~0~~~~~~~~~~~~~~~|
A#|0~~~~~~~~~~~~~~~0~~~~~~~~~~~~~~~0~~~~~~~~0~~~~~~~0~~~~~~~~~~~~~~~|
F#|7~~~~~~~~~~~~~~~6~~~~~~~~~~~~~~~11~~~~~~~6~~~~~~~6~~~~~~~~~~~~~~~|
C#|0~~~~~~~~~~~~~~~0~~~~~~~~~~~~~~~0~~~~~~~~0~~~~~~~0~~~~~~~~~~~~~~~|
G#|9~~~~~~~~~~~~~~~7~~~~~~~~~~~~~~~12~~~~~~~7~~~~~~~5~~~~~~~~~~~~~~~|
C#|9~~~~~~~~~~~~~~~7~~~~~~~~~~~~~~~12~~~~~~~7~~~~~~~5~~~~~~~~~~~~~~~|

  "Slide......into bed while I get drunk..."
D#|0~~~~~~~~~~~~~~~0~~~~~~~~~~~~~~~0~~~~~~~~~~~~~~~0~~~~~~~~~~~~~~~|
A#|0~~~~~~~~~~~~~~~0~~~~~~~~~~~~~~~0~~~~~~~~~~~~~~~0~~~~~~~~~~~~~~~|
F#|7~~~~~~~~~~~~~~~9~~~~~~~~~~~~~~~11~~~~~~~~~~~~~~4~~~~~~~~~~~~~~~|
C#|0~~~~~~~~~~~~~~~0~~~~~~~~~~~~~~~0~~~~~~~~~~~~~~~0~~~~~~~~~~~~~~~|
G#|9~~~~~~~~~~~~~~~12~~~~~~~~~~~~~~12~~~~~~~~~~~~~~5~~~~~~~~~~~~~~~|
C#|9~~~~~~~~~~~~~~~11~~~~~~~~~~~~~~12~~~~~~~~~~~~~~5~~~~~~~~~~~~~~~|

"Slow conversations with a gun mean more than I've ever said to anyone, anyone..."
(Palm mute all chords except the last two.)
   |--8 strums---| |------8 strums-------| |-----7 strums---------|
D#|---------------------------------------------------------------------------------|
A#|---------------------------------------------------------------------------------|
F#|---------------------------------------------------------------------------------|
C#|9-9-9-9-9-9-9-9/12-12-12-12-12-12-12-12-12-12-12-12-12-12-12-0-5~~~~~~~~~~~~~~---|
G#|9-9-9-9-9-9-9-9/12-12-12-12-12-12-12-12-12-12-12-12-12-12-12-0-5~~~~~~~~~~~~~~---|
C#|9-9-9-9-9-9-9-9/11-11-11-11-11-11-11-11-12-12-12-12-12-12-12-0-5~~~~~~~~~~~~~~---|
   p p p p p p p p p  p  p  p  p  p  p  p  p  p  p  p  p  p  p

                                   |---9 strums----|
D#|0~~~~~~~~~~~~~~~0~~~~~~~~~~~~~~~0-0-0-0-0-0-0-0-0-----------------|
A#|0~~~~~~~~~~~~~~~0~~~~~~~~~~~~~~~0-0-0-0-0-0-0-0-0-----------------|
F#|7~~~~~~~~~~~~~~~9~~~~~~~~~~~~~~~4-4-4-4-4-4-4-4-4-----------------|
C#|0~~~~~~~~~~~~~~~0~~~~~~~~~~~~~~~0-0-0-0-0-0-0-0-0-----------------|
G#|9~~~~~~~~~~~~~~~12~~~~~~~~~~~~~~5-5-5-5-5-5-5-5-5-----------------|
C#|9~~~~~~~~~~~~~~~11~~~~~~~~~~~~~~5-5-5-5-5-5-5-5-5-----------------|




[Chorus 2]

......."So keep in happiness and torture me while I tell you let's..."
   |-----L----O----O----P------| |-----L----O----O----P------|
D#|0~~0-0-0~~0-0-0-0-0-0-0-0-0-0-0~~0-0-0~~0-0-0-0-0-0-0-0-0-0---|
A#|0~~0-0-0~~0-0-0-0-0-0-0-0-0-0-0~~0-0-0~~0-0-0-0-0-0-0-0-0-0---|
F#|7~~7-7-7~~7-7-7-3-3-3-3-3-3-3-7~~7-7-7~~7-7-7-3-3-3-3-3-3-3---|
C#|4~~4-4-4~~4-4-4-2-2-2-2-2-2-2-4~~4-4-4~~4-4-4-2-2-2-2-2-2-2---|
G#|5~~5-5-5~~5-5-5-4-4-4-4-4-4-4-5~~5-5-5~~5-5-5-4-4-4-4-4-4-4---|
C#|0~~0-0-0~~0-0-0-x-x-x-x-x-x-x-0~~0-0-0~~0-0-0-x-x-x-x-x-x-x---|

  "Go in style..."
D#|0-0-0-0-0-0-0-0-0-0-0-0-0-0-0-0-|
A#|0-0-0-0-0-0-0-0-0-0-0-0-0-0-0-0-|
F#|0-0-0-0-0-0-0-0-0-0-0-0-0-0-0-0-|
C#|0-0-0-0-0-0-0-0-0-0-0-0-0-0-0-0-|
G#|2-2-2-2-2-2-2-2-4-4-4-4-5-5-5-5-|
C#|5-5-5-5-5-5-5-5-5-5-5-5-5-5-5-5-|

......."A million hooks around a million ways to die - darling, let's..."
   |-----L----O----O----P------| |-----L----O----O----P------|
D#|0~~0-0-0~~0-0-0-0-0-0-0-0-0-0-0~~0-0-0~~0-0-0-0-0-0-0-0-0-0---|
A#|0~~0-0-0~~0-0-0-0-0-0-0-0-0-0-0~~0-0-0~~0-0-0-0-0-0-0-0-0-0---|
F#|7~~7-7-7~~7-7-7-3-3-3-3-3-3-3-7~~7-7-7~~7-7-7-3-3-3-3-3-3-3---|
C#|4~~4-4-4~~4-4-4-2-2-2-2-2-2-2-4~~4-4-4~~4-4-4-2-2-2-2-2-2-2---|
G#|5~~5-5-5~~5-5-5-4-4-4-4-4-4-4-5~~5-5-5~~5-5-5-4-4-4-4-4-4-4---|
C#|0~~0-0-0~~0-0-0-x-x-x-x-x-x-x-0~~0-0-0~~0-0-0-x-x-x-x-x-x-x---|

  "Go inside...................it'll..."
D#|0-0-0-0-0-0-0-0-0-0-0-0-0-0-0-0-|
A#|0-0-0-0-0-0-0-0-0-0-0-0-0-0-0-0-|
F#|0-0-0-0-0-0-0-0-0-0-0-0-0-0-0-0-|
C#|0-0-0-0-0-0-0-0-0-0-0-0-0-0-0-0-|
G#|2-2-2-2-2-2-2-2-4-4-4-4-5-5-5-5-|
C#|5-5-5-5-5-5-5-5-5-5-5-5-5-5-5-5-|

  "Be alright..."
D#|x-----------------------------------------|
A#|x-----------------------------------------|
F#|x-----------------------------------------|
C#|8~~~~~~~~~~~~~~~~~~~~~~~~~~~~~~~~~~~~~~~~~|
G#|7~~~~~~~~~~~~~~~~~~~~~~~~~~~~~~~~~~~~~~~~~|
C#|5~~~~~~~~~~~~~~~~~~~~~~~~~~~~~~~~~~~~~~~~~|



[Bridge]

"But last night, you said you ended up in Palm Springs dancing on tables -
almost fought some bitch at the club, got kicked out of your hotel and lost your shoes. Well..."
D#|x---------------x---------------x---------------x---------------|
A#|x---------------x---------------x---------------x---------------|
F#|x---------------6~~~~~~~~~~~~~~~7~~~~~~~~~~~~~~~7~~~~~~~~~~~~~~~|
C#|4~~~~~~~~~~~~~~~7~~~~~~~~~~~~~~~9~~~~~~~~~~~~~~~8~~~~~~~~~~~~~~~|
G#|5~~~~~~~~~~~~~~~9~~~~~~~~~~~~~~~10~~~~~~~~~~~~~~10~~~~~~~~~~~~~~|
C#|x---------------x---------------x---------------x---------------|


"F(bleep)ck - what, am I supposed to be impressed? You're just another set of bones to
lay to rest..."
(Palm mute all chords except for the first.)
D#|----------------------------------------------------------------|
A#|----------------------------------------------------------------|
F#|7~7-7-7-7-7-7-7-7-7-7-7-7-7-7-7-6~6-6-6-6-6-6-6-6-6-6-6-6-6-6-6-|
C#|4~4-4-4-4-4-4-4-4-4-4-4-4-4-4-4-7~7-7-7-7-7-7-7-7-7-7-7-7-7-7-7-|
G#|5~5-5-5-5-5-5-5-5-5-5-5-5-5-5-5-9~9-9-9-9-9-9-9-9-9-9-9-9-9-9-9-|
C#|----------------------------------------------------------------|
     p p p p p p p p p p p p p p p p p p p p p p p p p p p p p p p

"So I'll say goodnight, I do hope you've had a rather splendid time, madam..."
(Start to come up off of that palm mute around 8 strums in.)
D#|------------------------------------------------------------------------------------------------------|
A#|------------------------------------------------------------------------------------------------------|
F#|7--7--7--7--7--7--7--7--7--7--7--7--7--7--7--7--7--7~~~~~~~~~~~~~~~~~~~~~~~~~~~~~~~~~~~~~~~~~~~~~~~~~~|
C#|9--9--9--9--9--9--9--9--9--9--9--9--9--9--9--9--9--8~~~~~~~~~~~~~~~~~~~~~~~~~~~~~~~~~~~~~~~~~~~~~~~~~~|
G#|10-10-10-10-10-10-10-10-10-10-10-10-10-10-10-10-10-10~~~~~~~~~~~~~~~~~~~~~~~~~~~~~~~~~~~~~~~~~~~~~~~~~|
C#|------------------------------------------------------------------------------------------------------|
   p  p  p  p  p  p  p  p

  "Time..............................................good time..."
D#|0~~0~~0-0-0-0-0~~0-0-0-0-0~~0-0-0~~0-0-0-0-0-0-0-0-0-0-0~~~~0--0--0~~~~0--0--0--0--0~~~~0--0--0--0---|
A#|0~~0~~0-0-0-0-0~~0-0-0-0-0~~0-0-0~~0-0-0-0-0-0-0-0-0-0-0~~~~0--0--0~~~~0--0--0--0--0~~~~0--0--0--0---|
F#|7~~7~~7-7-7-7-7~~7-7-7-7-6~~6-6-6~~6-6-6-6-6-6-6-6-6-6-7~~~~7--7--7~~~~7--7--7--7--7~~~~7--7--7--7---|
C#|4~~4~~4-4-4-4-4~~4-4-4-4-7~~7-7-7~~7-7-7-7-7-7-7-7-7-7-9~~~~9--9--9~~~~9--9--9--9--9~~~~9--9--9--9---|
G#|5~~5~~5-5-5-5-5~~5-5-5-5-9~~9-9-9~~9-9-9-9-9-9-9-9-9-9-10~~~10-10-10~~~10-10-10-10-10~~~10-10-10-10--|
C#|0~~0~~0-0-0-0-0~~0-0-0-0-0~~x-x-x--x-x-x-x-x-x-x-x-x-x-x----x--x--x----x--x--x--x--x----x--x--x--x---|

D#|0~~~~0--0--0~~~~0--0--0--0--0--0--0--0--0--0---|
A#|0~~~~0--0--0~~~~0--0--0--0--0--0--0--0--0--0---|
F#|7~~~~7--7--7~~~~7--7--7--7--7--7--7--7--7--7---|
C#|8~~~~8--8--8~~~~8--8--8--8--8--8--8--8--8--8---|
G#|10~~~10-10-10~~~10-10-10-10-10-10-10-10-10-10--|
C#|x----x--x--x----x--x--x--x--x--x--x--x--x--x---|



        [3rd Pre-Chorus Riff]
(Not included in the alternative or acoustic versions.)
I always incorporate parts of the full-band versions of songs into my acoustic playing -
it's simply what I love to do. I also like to think that it makes me cool. Do you think
I'm cool?

"But I will soon forget the color of your eyes, and you'll..."
   |--------L--------O--------O--------P--------|  |--------L--------O--------O--------P--|
D#|------------------------------------------------------------------------------------------------|
A#|------------------------------------------------------------------------------------------------|
F#|------7~~~~~~~~7~~~~~7--------3~~~~~~~~3~~~~~3--------7~~~~~~~~7~~~~~7--------3~~~~~~~~3~~~~~3--|
C#|---4~~~~~~~~4~~~~~~~~------2~~~~~~~~2~~~~~~~~------4~~~~~~~~4~~~~~~~~------2~~~~~~~~2~~~~~~~~---|
G#|5~~~~~~~~5~~~~~~~~5~~---4~~~~~~~~4~~~~~~~~4~~---5~~~~~~~~5~~~~~~~~5~~---4~~~~~~~~4~~~~~~~~4~~---|
C#|------------------------------------------------------------------------------------------------|

"Forget mine..."
D#|-------------------------------------------------------------------------x-x--|
A#|-------------------------------------------------------------------------x-x--|
F#|-------------------------------------------------------------------------x-x--|
C#|------5~~~~~~~~5~~~~~5--------4~~~~~---------5-5-5-5-5-5-5-5/7-7-7-7-7-7-x-x--|
G#|---5~~~~~~~~5~~~~~~~~------5~~~~~5~~---------5-5-5-5-5-5-5-5/7-7-7-7-7-7-x-x--|
C#|5~~~~~~~~5~~~~~~~~5~~---4~~~~~~~~~~~4--------5-5-5-5-5-5-5-5/7-7-7-7-7-7-x-x--|




[Chorus 3]

......."So keep in happiness and torture me while I tell you let's..."
   |-----L----O----O----P------| |-----L----O----O----P------|
D#|0~~0-0-0~~0-0-0-0-0-0-0-0-0-0-0~~0-0-0~~0-0-0-0-0-0-0-0-0-0---|
A#|0~~0-0-0~~0-0-0-0-0-0-0-0-0-0-0~~0-0-0~~0-0-0-0-0-0-0-0-0-0---|
F#|7~~7-7-7~~7-7-7-3-3-3-3-3-3-3-7~~7-7-7~~7-7-7-3-3-3-3-3-3-3---|
C#|4~~4-4-4~~4-4-4-2-2-2-2-2-2-2-4~~4-4-4~~4-4-4-2-2-2-2-2-2-2---|
G#|5~~5-5-5~~5-5-5-4-4-4-4-4-4-4-5~~5-5-5~~5-5-5-4-4-4-4-4-4-4---|
C#|0~~0-0-0~~0-0-0-x-x-x-x-x-x-x-0~~0-0-0~~0-0-0-x-x-x-x-x-x-x---|

  "Go in style..."
D#|0-0-0-0-0-0-0-0-0-0-0-0-0-0-0-0-|
A#|0-0-0-0-0-0-0-0-0-0-0-0-0-0-0-0-|
F#|0-0-0-0-0-0-0-0-0-0-0-0-0-0-0-0-|
C#|0-0-0-0-0-0-0-0-0-0-0-0-0-0-0-0-|
G#|2-2-2-2-2-2-2-2-4-4-4-4-5-5-5-5-|
C#|5-5-5-5-5-5-5-5-5-5-5-5-5-5-5-5-|

......."A million hooks around a million ways to die - let's..."
D#|0---0----------0-------------0---0----------0~~~~~~~~~~~~~~|
A#|0---0----------0-------------0---0----------0~~~~~~~~~~~~~~|
F#|7---7----------3-------------7---7----------3~~~~~~~~~~~~~~|
C#|4---4----------2-------------4---4----------2~~~~~~~~~~~~~~|
G#|5---5----------4-------------5---5----------4~~~~~~~~~~~~~~|
C#|0---0----------x-------------0---0----------x-------4~~~~~~|

  "Go inside...................it'll..."
D#|0-0-0-0-0-0-0-0-0-0-0-0-0-0-0-0-|
A#|0-0-0-0-0-0-0-0-0-0-0-0-0-0-0-0-|
F#|0-0-0-0-0-0-0-0-0-0-0-0-0-0-0-0-|
C#|0-0-0-0-0-0-0-0-0-0-0-0-0-0-0-0-|
G#|2-2-2-2-2-2-2-2-4-4-4-4-5-5-5-5-|
C#|5-5-5-5-5-5-5-5-5-5-5-5-5-5-5-5-|

  "Be alright..."                          (I tend to play this - the open chord tonality with the
   (This is what Vic plays.)                "tonic" C# note sounds so good right here as well.)
D#|x-x-x-x-x-x-x-x-x-x-x-x-x-x-x-x-|          D#|0-0-0-0-0-0-0-0-0-0-0-0-0-0-0-0-|
A#|x-x-x-x-x-x-x-x-x-x-x-x-x-x-x-x-|          A#|0-0-0-0-0-0-0-0-0-0-0-0-0-0-0-0-|
F#|x-x-x-x-x-x-x-x-x-x-x-x-x-x-x-x-|          F#|7-7-7-7-7-7-7-7-7-7-7-7-7-7-7-7-| tonic note
C#|8-8-8-8-8-8-8-8-8-8-8-8-8-8-8-8-|          C#|8-8-8-8-8-8-8-8-8-8-8-8-8-8-8-8-|
G#|7-7-7-7-7-7-7-7-7-7-7-7-7-7-7-7-|          G#|7-7-7-7-7-7-7-7-7-7-7-7-7-7-7-7-|
C#|5-5-5-5-5-5-5-5-5-5-5-5-5-5-5-5-|          C#|x-x-x-x-x-x-x-x-x-x-x-x-x-x-x-x-|




[Outro]

"But last night, you said ended up in Palm Springs dancing on tables..."
(Palm mute all chords except the last one, and play all of those suckers double-speed -
they're fast strums.)
D#|0-0-0-0-0-0-0-0-0~~~~~~~~~~~~~~~~~~------------------------------------------------------------------|
A#|0-0-0-0-0-0-0-0-0~~~~~~~~~~~~~~~~~~------------------------------------------------------------------|
F#|7-7-7-7-7-7-7-7-7~~~~~~~~~~~~~~~~~~------------------------------------------------------------------|
C#|4-4-4-4-4-4-4-4-4~~~~~~~~~~~~~~~~~~------------------------------------------------------------------|
G#|5-5-5-5-5-5-5-5-5~~~~~~~~~~~~~~~~~~------------------------------------------------------------------|
C#|0-0-0-0-0-0-0-0-0~~~~~~~~~~~~~~~~~~------------------------------------------------------------------|
   p p p p p p p p p



[Extra Ending Riff Vic Plays Every Once And Then]

D#|2~~~~~~~~~~~~~~~~~~~~~~~~~~~~~~~~2~~~~~~~~~~~~~~-----0~~~~~~~~~~~~~~~~~~~~~~~~~~~~~~~~|
A#|3~~~~~~~~~~~~~~~~~~~~~~~~~~~~~~~~~~~~~3~~~~~~~~~-----0~~~~~~~~~~~~~~~~~~~~~~~~~~~~~~~~|
F#|2~~~~~~~~~~~~~~~~~~~~~~~~~~~~~~~~~~~~~~~~~~2~~~~0~~~~0~~~~~~~~~~~~~~~~~~~~~~~~~~~~~~~~|
C#|0~~~~~~~~~~~~~~~~~~~~~~~~~~~~~~~~~~~~~~~~~~~~~~~~~~~~2\4~~~~~~~~~~~~~~~~~~~~~~~~~~~~~~|
G#|0~~~~~~~~~~~~~~~~~~~~~~~~~~~~~~~~~~~~~~~~~~~~~~~~~~~~0~~~~~~~~~~~~~~~~~~~~~~~~~~~~~~~~|
C#|0~~~~~~~~~~~~~~~~~~~~~~~~~~~~~~~~--------------------0~~~~~~~~~~~~~~~~~~~~~~~~~~~~~~~~|




I really, really hope this helps you out and you like it. If you're a UG author, you enjoy my tabs and you up
vote them, you'll make it so much easier for me to publicize future stellar tablature like this.
Myself and many others will be very grateful for your support. :)

My name's Demetrius - again, my YouTube channels: 
Pierce The Vegan - https://www.youtube.com/channel/UC3c-1ZDochB5sX-EMVW4PxQ
Beverly Valley - https://www.youtube.com/channel/UCb75kwZnHUZ9O7YzbRxzCpA




BAM. LYRICS FOR YOUR BUTT:

[Verse 1]
As I choke, tried to wash you down with something strong.
Tried, but the taste of blood remains (of blood remains, of blood remains)
All thses cold, empty mattresses and falling stars,
My, how they start to look the same.

[Chorus]
So keep in happiness and torture me while I,
Tell you let's go in style.
A million hooks around a million ways to die.
Darling, it's cold outside.

[Verse 2]
No, no more eyes to see the sun (to see the sun),
You slide into bed while I get drunk.
Slow conversations with a gun
Mean more than I've ever said to anyone, anyone.

[Chorus]
So keep in happiness and torture me while I,
Tell you let's go in style.
A million hooks around a million ways to die,
Darling, let's go inside, it'll be alright.

[Hook]
But last night,
You said you ended up in Palm Springs dancing on tables.
Almost fought some bitch at the club (yeah!),
Got kicked out of your hotel and lost your shoes.
Well fuck, what am I supposed to be impressed?
You're just another set of bones to lay to rest.

I guess it's time to say goodnight,
Hope you had a really good time, good time.

[Bridge]
But I will soon forget the color of your eyes
And you'll forget mine.

[Chorus]
So keep in happiness and torture me while I,
Tell you let's go in style.
A million hooks around a million ways to die,
Let's go outside, it'll be alright.

[Outro]
But last night,
You said ended up in Palm Springs dancing on tables.
Suggest correction
comments
print report bad tab
1 comment total.
0 reply
thepicwookie 12 Oct 23, 2016 04:05 AM

I like that you included the pre-chorus riff at the end, in my opinion that's the best part of the song

guest
You may want to rate the tab now too:
select rating
Wanna post a correction for this tab? Suggest correction