Oops, an error
Loading. Please wait.

Im Low On Gas And You Need A Jacket Bass Tab

13 views 6 this week
no commentswrite comment
1 2 3 4 5
1 last vote to show rating
add to favorites
launch autoscroll
font size
0
reset
guitar tuner
Autoscroll
slow
fast
+/-
esc
set tempo
stop
Help us to improve Ultimate-Guitar.com Take our survey!
×
Author
Difficulty
Tuning
novice
D A D G B E
About this tab version
There isn't a bass tab for this song. Was this info helpful? Yes No
My second tab, Enjoy!
BPM:126


[Intro]

G|---------------------------------------------------------------------------|
D|---------------------------------------------------------------------------|
A|---------------------------------------------------------------------------|
D|---9(x16)--7(x16)--12(x8)--7(x8)--5(x16)-----------------------------------|
     *       *       *       *      *
G|---------------------------------------------------------------------------|
D|---------------------------------------------------------------------------|
A|---------------------------------------------------------------------------|
D|---9(x16)--7(x16)--12(x8)--7(x8)--5----------------------------------------|
     *       *       *       *      



[Verse]

G|---------------------------------------------------------------------------|
D|---------------------------------------------------------------------------|
A|---------------------------------------------------------------------------|
D|---9(x16)--11(x16)-12(x8)--7(x8)--5(x8)------------------------------------|
     *       *       *       *      *
G|---------------------------------------------------------------------------|
D|---------------------------------------------------------------------------|
A|---------------------------------------------------------------------------|
D|---9(x16)--11(x16)-12(x8)--5(x16)------------------------------------------|
     *       *       *       *      
G|---------------------------------------------------------------------------|
D|---------------------------------------------------------------------------|
A|---------------------------------------------------------------------------|
D|---9(x16)--11(x16)-12(x8)--7(x8)--5(x8)------------------------------------|
     *       *       *       *      *
G|---------------------------------------------------------------------------|
D|---------------------------------------------------------------------------|
A|---------------------------------------------------------------------------|
D|---9(x16)--11(x16)-12(x8)--5-----------------------------------------------|
     *       *       *          

[Chorus]

G|---------------------------------------------------------------------------|
D|---------------------------------------------------------------------------|
A|-------------0-0--0-0------------0-0--0-0---2(x16)--4(x8)--5(x8)-----------|
D|---0-0--0-0------------0-0--0-0--------------------------------------------|

G|---------------------------------------------------------------------------|
D|---------------------------------------------------------------------------|
A|-------------0-0--0-0------------0-0--0-0---2(x16)--4(x8)--5(x8)-----------|
D|---0-0--0-0------------0-0--0-0--------------------------------------------|

[Bridge/Verse?]

G|---------------------------------------------------------------------------|
D|---------------------------------------------------------------------------|
A|---------------------------------------------------------------------------|
D|---9(x16)--7(x16)--12(x8)--7(x8)--5(x16)-----------------------------------|
     *       *       *       *      *
G|---------------------------------------------------------------------------|
D|---------------------------------------------------------------------------|
A|---2-2-2-2-2-2-2-2--0-0-0-0-0-0-0-0----------------------------------------|
D|-------------------------------------5-5-5-5-5-5-/16\5-5-5-5-5-5-5-5-------|
       *   *   *   *    *   *   *   *    *   *   *       *   *   *   *
G|---------------------------------------------------------------------------|
D|---------------------------------------------------------------------------|
A|--2-2-2-2-2-2-2-2--4-4-4-4-4-4-4-4--5-5-5-5-5-5-5-5------------------------|
D|-----------------------------------------------------5-5-5-5-5-5-5-5-------|
      *   *   *   *    *   *   *   *    *   *   *   *    *   *   *   *


G|---------------------------------------------------------------------------|
D|------------------------------5(x8)-4(x8)-2(x8)-0(x8)----------------------|
A|--2-2(x7)-4(x4)-0(x4)-5(x8)------------------------------------------------|
D|---------------------------------------------------------------------------|
      *     *     *     *    SLOWLY EASE OFF PALM MUTE

G|---------------------------------------------------------------------------|
D|---------------------------------------------------------------------------|
A|--2~--0~-------------------------------------------------------------------|
D|----------5~-------(0/---just for fun)-------------------------------------|

[Chorus]

G|---------------------------------------------------------------------------|
D|---------------------------------------------------------------------------|
A|-------------0-0--0-0------------0-0--0-0---2(x16)--4(x8)--5(x8)-----------|
D|---0-0--0-0------------0-0--0-0--------------------------------------------|

G|---------------------------------------------------------------------------|
D|---------------------------------------------------------------------------|
A|-------------0-0--0-0------------0-0--0-0---2(x16)--4(x8)--5(x8)/10\9------|
D|---0-0--0-0------------0-0--0-0------------------------------------------0-|

[Very soft breakdown]

G|--------------------------------------------------------------------------------------------|
D|--------------------------------------------------------------------------------------------|
A|---7 5---\10 9 5----/10 9 ------------------------------------------------------------------|
D|-------5----------5---------00 00 00 0 00 00 00 0---44 44 44 4 44 44 44 4 -5(x8) 7(x8)--5~--|
                              **    **   **    **     **    **   **    **

[Bridge]

G|---------------------------------------------------------------------------|
D|---------------------------------------------------------------------------|
A|---------------------------------------------------------------------------|
D|--0(x16)--5(x16)--7(x16)---5(x8)-------------------------------------------|

[Guitar Solo]

G|---------------------------------------------------------------------------|
D|---------------------------------------------------------------------------|
A|---------------------------------------------------------------------------|
D|--0(throughout the solo)---------------------------------------------------|

[Chorus]

G|---------------------------------------------------------------------------|
D|---------------------------------------------------------------------------|
A|---------------------------------------------------------------------------|
D|--5(x8)----7(x8)-----------------------------------------------------------|


G|---------------------------------------------------------------------------|
D|---------------------------------------------------------------------------|
A|-------------0-0--0-0------------0-0--0-0---2(x16)--4(x8)--5(x8)-----------|
D|---0-0--0-0------------0-0--0-0--------------------------------------------|

G|-------------------------------------------------------------------------------------------|
D|-------------------------------------------------------------------------------------------|
A|-------------0-0--0-0------------0-------2(x16)--4(x8)--5(x8)/10(x8\9(x8)------------------|
D|---0-0--0-0------------0-0--0-0---------------------------------------------0000000~~------|
                                                                              ******


************************************

| x   Dead note
| g   Grace note
| (n) Ghost note
| h   Hammer-on
| p   Pull-off
| r   Release
| >   Accented note
| t   Tapping
| b   Bend
| br  Bend release
| pb  Pre-bend
| pbr Pre-bend release
| /   Slide up
| \   Slide down
| ~   Vibrato
| s   Slap
| P   Pop
| PM  Palm mute
| TR  Trill
| N   Tremolo

************************************
Suggest correction
Give kudos to tab author, rate the tab!
1 2 3 4 5
comments
print report bad tab
guest
You may want to rate the tab now too:
select rating
Wanna post a correction for this tab? Suggest correction