Oops, an error
Loading. Please wait.

Im Low On Gas And You Need A Jacket Tab

version 1
version 1

Whole song

34,090 views 33 this week
4 commentsread comments
1 2 3 4 5
x 11
add to favorites
launch autoscroll
font size
0
reset
how to read this tab
guitar tuner
Autoscroll
slow
fast
+/-
esc
set tempo
stop
Help us to improve Ultimate-Guitar.com Take our survey!
×
Author
Difficulty
Tuning
intermediate
D A D G B E
I'M LOW ON GAS AND YOU NEED A JACKET - Pierce The Veil
Tabbed by: Nano511
E-mail: enano896@hotmail.com
Tuning: DADGBe or DADGAd

 To make this sound nicer acoustically you can play chords in this
 formation with open d and a.
E|-0
B|-0
G|-3
D|-1
A|-1
D|-1

 [Intro](0:00-0:18)
E|-----------------------------------|
B|-----------------------------------|
G|-----------------------------------| (2x)
D|-9------7------12-----7-----5------|
A|-9(16x)-7(16x)-12(8x)-7(8x)-5(16x)-|
D|-9------7------12-----7-----5------|


 [Verse](0:19-0:49)
E|------------------------------------|
B|------------------------------------|
G|------------------------------------|
D|-9------11------12-----7-----5------|
A|-9(16x)-11(16x)-12(8x)-7(8x)-5(16---|x)
D|-9------11------12-----7-----5------|
                                        (2x)
e-----------------------------------|
B-----------------------------------|
G-----------------------------------|
D-9------11------12------5----------|
A-9(16x)-11(16x)-12(16x)-5(16x)-----|
D-9------11------12------5----------|

 [Chorus](0:50-1:11)
 Rhythm
E|---------------------------------------------|
B|---------------------------------------------|
G|---------------------------------------------|
D|-12----11----12----11-----5-----11----12-----|
A|-12(8x)11(8x)12(8x)11(8x)-5(8x)-11(4x)12(4x)-|
D|-12----11----12----11-----5-----11----12-----|

 Lead
E|------------------|
B|------------------|
G|---7--7-7--6--6-6-|
D|--4--4-4--2--2-2--|
A|-5--5----4--4-----|
D|------------------|

 [Post Chorus](1:12-1:19)
E|-----------------------------------|
B|-----------------------------------|
G|-----------------------------------|
D|-9------7------12-----7-----5------|
A|-9(16x)-7(16x)-12(8x)-7(8x)-5(16x)-|
D|-9------7------12-----7-----5------|

 [Verse](1:20-1:49)
E|--------------------------------------------------------------|
B|--------------------------------------------------------------|
G|--------------------------------------------------------------|
D|------------------------------9------11------12--------12-7-12|
A|------------------------------9(16x)-11(16x)-12(16x)---12-7-12|
D|-9--7--5----9--11--12--7-5----9------11------12-----5--12-7-12|

 [Chorus](1:50-2:16)
 Rhythm
E|---------------------------------------------|
B|---------------------------------------------|
G|---------------------------------------------| (2x)
D|-12----11----12----11-----5-----11----12-----|
A|-12(8x)11(8x)12(8x)11(8x)-5(8x)-11(4x)12(4x)-|
D|-12----11----12----11-----5-----11----12-----|

E|-------|
B|-------|
G|-------|
D|-5--4--|
A|-5--4--|
D|-5--4--|

 Lead
E|------------------|
B|------------------|
G|---7--7-7--6--6-6-|
D|--4--4-4--2--2-2--|
A|-5--5----4--4-----|
D|------------------|

 [Bridge Pt1](2:17-3:17)
E|------------------------|
B|------------------------|
G|------------------------|
D|------------------------|
A|------------------------|
D|-0---4-2-0-5--4-0-5---4-|

E|-------------------------|
B|-------------------------|
G|-------------------------|(3x)
D|-0-----4-----5-----7-----|
A|-0(16x)4(16x)5(16x)7(16x)|
D|-0-----4-----5-----7-----|

 [Bridge Pt2](3:17-3:28)
E|------------------|
B|------------------|
G|---7--7-7--6--6-6-|
D|--4--4-4--2--2-2--| (2x)
A|-5--5----4--4-----|
D|------------------|

E|-------------------------------|
B|-------------------------------|
G|---5--5-5--4--4-4--------------|
D|--5--5-5--5--5-5---5-----7-----|
A|-5--5----4--4------5(16x)7(16x)|
D|-------------------5-----7-----|

 [Chorus](3:33-2:16)
 Rhythm
E|---------------------------------------------|
B|---------------------------------------------|
G|---------------------------------------------|
D|-12----11----12----11-----5-----11----12-----|
A|-12(8x)11(8x)12(8x)11(8x)-5(8x)-11(4x)12(4x)-|
D|-12----11----12----11-----5-----11----12-----|

E|--------------------------------------|
B|--------------------------------------|
G|--------------------------------------|
D|-12----11----12----11-4-5-----7----12-|
A|-12(8x)11(8x)12(8x)11-4-5(24x)7(8x)12-|
D|-12----11----12----11-4-5-----7----12-|

 Lead
E|------------------|
B|------------------|
G|---7--7-7--6--6-6-|
D|--4--4-4--2--2-2--|
A|-5--5----4--4-----|
D|------------------|
Suggest correction
comments
print report bad tab
4 comments total. Showing first comments.
0 reply
oursummeranthem 426 Jul 27, 2012 03:04 AM

So what happens between 3:17 - 3:29?

0 reply
oursummeranthem 426 Jul 27, 2012 03:05 AM

And you're missing a lot of parts too esp. the palm muting in the bridge

0 reply
Nano511 205 Jul 27, 2012 01:42 PM

Sorry about that! I've updated the tab and im waiting for the approval. If you see anything wrong or something i've missed please let me know.

Also, I forgot to add in the palm mute during the bridge in the update so when it IS updated ill have to update it again.

Here is what i got for those who can't wait:


Lead(palmute)
e----------------| --------------------|
B----------------| ----7--5----7--5----|
G---7--6----7--6-|(2x)----------7-------7-|(2x)
D--7--7--7-7--7--| ----7--7-7--7--7-7--|
A-5--5--5-5--5---| ---5--5----5--5-----|
D----------------| --------------------|

guest
You may want to rate the tab now too:
select rating
Wanna post a correction for this tab? Suggest correction