Oops, an error
Loading. Please wait.

Im Low On Gas And You Need A Jacket tab

version 6
version 6

Whole song

  • This tab is extremely accurate. This will make you... Show more
  • Played in Drop B instead of Drop C#. Improvised th... Show more
67 views 6 this week
no commentswrite comment
1 2 3 4 5
1 last vote to show rating
add to favorites
×
Save as Personal and add changes to this tab that will be seen only by you. Learn more ›
×
You can save this tab as Personal to edit and correct it or add notes. All changes will be seen only by you. Learn more »
launch autoscroll
font size
0
reset
how to read this tab
guitar tuner
edit
Autoscroll
slow
fast
+/-
esc
set tempo
stop
About this tab version
Played in Drop B instead of Drop C#. Improvised the solo/instrumental with octaves. Was this info helpful? Yes No
Song: I'm Low On Gas And You Need A Jacket
Album: Collide With The Sky
Artist: Pierce The Veil
Tabbed by: PierceThe Knight

[Intro] (In 3 different ways so you can pick your preference on how to play it)

(Version #1)
C#|-----------------------------|
G#|---/6---\5---/10---\5---\3---|
E |-----------------------------|
B |-----------------------------| [x2]
F#|-----------------------------|
B |-----------------------------|

(Version #2)
C#|-------------------------------|
G#|-------------------------------|
E |---//10---\9---/14---\9---\7---|
B |-------------------------------| [x2]
F#|-------------------------------|
B |-------------------------------|

(Version #3)
C#|---------------------------------|
G#|---------------------------------|
E |---------------------------------|
B |---/15---\14---/19---\14---\12---| [x2]
F#|---------------------------------|
B |---------------------------------|

(This litle riff can also be played during the verse)

[Verse] ("Choke, tried to wash you down with a
C#|---------------------------------|---------------------------------|-----------------|
G#|---------------------------------|---------------------------------|-----------------|
E |---------------------------------|---------------------------------|-----------------|
B |---------------------------------|---------------------------------|-----------------|
F#|-5-5-5-5-5-5-5-5-5-5-5-5-5-5-5-5-|-7-7-7-7-7-7-7-7-7-7-7-7-7-7-7-7-|-8-8-8-8-8-8-8-8-|
B |---------------------------------|---------------------------------|-----------------|
 PM |---------------------------------------------------------------------------------|

C#|-------------------------|---------------------------|
G#|-------------------------|---------------------------|
E |-------------------------|---------------------------|
B |-------------------------|---------------------------|
F#|-------------------------|---------------------------|
B |-10-10-10-10-10-10-10-10-|-8-8-8-8-8-8-8-8-8-8-8-8---|
 PM |------------------------------------------------|

C#|---------------------------------|---------------------------------|-----------------|
G#|---------------------------------|---------------------------------|-----------------|
E |---------------------------------|---------------------------------|-----------------|
B |---------------------------------|---------------------------------|-----------------|
F#|-5-5-5-5-5-5-5-5-5-5-5-5-5-5-5-5-|-7-7-7-7-7-7-7-7-7-7-7-7-7-7-7-7-|-8-8-8-8-8-8-8-8-|
B |---------------------------------|---------------------------------|-----------------|
 PM |---------------------------------------------------------------------------------|

C#|-------------------------|---------------------------|
G#|-------------------------|---------------------------|
E |-------------------------|---------------------------|
B |-------------------------|---------------------------|
F#|-------------------------|---------------------------|
B |-10-10-10-10-10-10-10-10-|-8-8-8-8-8-8-8-8-8-8-8-8---|
PM |------------------------------------------------|

C#|---------------------------------|---------------------------------|-----------------|
G#|---------------------------------|---------------------------------|-----------------|
E |---------------------------------|---------------------------------|-----------------|
B |---------------------------------|---------------------------------|-----------------|
F#|-5-5-5-5-5-5-5-5-5-5-5-5-5-5-5-5-|-7-7-7-7-7-7-7-7-7-7-7-7-7-7-7-7-|-8-8-8-8-8-8-8-8-|
B |---------------------------------|---------------------------------|-----------------|
 PM |---------------------------------------------------------------------------------|

C#|-------------------------|---------------------------|
G#|-------------------------|---------------------------|
E |-------------------------|---------------------------|
B |-------------------------|---------------------------|
F#|-------------------------|---------------------------|
B |-10-10-10-10-10-10-10-10-|-8-8-8-8-8-8-8-8-8-8-8-8---|
PM |------------------------------------------------|

C#|---------------------------------|---------------------------------|-----------------|
G#|---------------------------------|---------------------------------|-----------------|
E |---------------------------------|---------------------------------|-----------------|
B |---------------------------------|---------------------------------|-----------------|
F#|-5-5-5-5-5-5-5-5-5-5-5-5-5-5-5-5-|-7-7-7-7-7-7-7-7-7-7-7-7-7-7-7-7-|-8-8-8-8-8-8-8-8-|
B |---------------------------------|---------------------------------|-----------------|
 PM |---------------------------------------------------------------------------------|

C#|-------------------------|----|
G#|-------------------------|----|
E |-------------------------|----|
B |-------------------------|-8--|
F#|-------------------------|-8--|
B |-10-10-10-10-10-10-10-10-|-8--|
PM |----------------------|

[Chorus] ("So keep in happiness and torture me...")
C#|---------------------|-----------------|-------------------|-----------------|
G#|---------------------|-----------------|-------------------|-----------------|
E |-------10-----10-----|-----6-----6-----|-----10-----10-----|-----6-----6-----|
B |-----7------7------7-|---5-----5-----5-|---7------7------7-|---5-----5-----5-|
F#|---8------8------8---|-7-----7-----7---|-8------8------8---|-7-----7-----7---|
B |---------------------|-----------------|-------------------|-----------------|

C#|--------------------------|--------------------------|
G#|--------------------------|--------------------------|
E |--7--7--7--7--7--7--7--7--|--9--9--9--9--9--9--9--9--|
B |--x--x--x--x--x--x--x--x--|--x--x--x--x--x--x--x--x--|
F#|--5--5--5--5--5--5--5--5--|--7--7--7--7--7--7--7--7--|
B |--------------------------|--------------------------|

C#|---------------------|-----------------|-------------------|-----------------|
G#|---------------------|-----------------|-------------------|-----------------|
E |-------10-----10-----|-----6-----6-----|-----10-----10-----|-----6-----6-----|
B |-----7------7------7-|---5-----5-----5-|---7------7------7-|---5-----5-----5-|
F#|---8------8------8---|-7-----7-----7---|-8------8------8---|-7-----7-----7---|
B |---------------------|-----------------|-------------------|-----------------|

C#|--------------------------|--------------------------|
G#|--------------------------|--------------------------|
E |--7--7--7--7--7--7--7--7--|--9--9--9--9--9--9--9--9--|
B |--x--x--x--x--x--x--x--x--|--x--x--x--x--x--x--x--x--|
F#|--5--5--5--5--5--5--5--5--|--7--7--7--7--7--7--7--7--|
B |--------------------------|--------------------------|

[Verse]
C#|-----------------------------|
G#|---/6---\5---/10---\5---\3---|
E |-----------------------------|
B |-----------------------------|
F#|-----------------------------|
B |-----------------------------|

"No, no more eyes to see the sun..."

C#|----------------------------|-----------------------------|
G#|----------------------------|-----------------------------|
E |----------------------------|-----------------------------|
B |----------------------------|-----------------------------|
F#|----------------------------|-----------------------------|
B |-----/12-----\10-----\8-----|-----./12-----\10-----\8-----|

C#|-----------------|-----------------|---------|-------------|---------------|
G#|-----------------|-----------------|-----------------------|---------------|
E |-----------------|-----------------|---------|-------------|---------------|
B |-----------------|-----------------|---------|-------------|---------------|
F#|-5-5-5-5-5-5-5-5-|-7-7-7-7-7-7-7-7-|-8-8-8-8-|-------------|---------------|
B |-----------------|-----------------|---------|-10-10-10-10-|-8--\7-\5-\3---|

C#|--------|-------|-------|
G#|--------|-------|-------|
E |---10---|---9---|---7---|
B |----x---|---x---|---x---|
F#|----8---|---7---|---5---|
B |--------|-------|-------|

[Chorus] "So keep in happiness..."
C#|---------------------|-----------------|-------------------|-----------------|
G#|---------------------|-----------------|-------------------|-----------------|
E |-------10-----10-----|-----6-----6-----|-----10-----10-----|-----6-----6-----|
B |-----7------7------7-|---5-----5-----5-|---7------7------7-|---5-----5-----5-|
F#|---8------8------8---|-7-----7-----7---|-8------8------8---|-7-----7-----7---|
B |---------------------|-----------------|-------------------|-----------------|

C#|--------------------------|--------------------------|
G#|--------------------------|--------------------------|
E |--7--7--7--7--7--7--7--7--|--9--9--9--9--9--9--9--9--|
B |--x--x--x--x--x--x--x--x--|--x--x--x--x--x--x--x--x--|
F#|--5--5--5--5--5--5--5--5--|--7--7--7--7--7--7--7--7--|
B |--------------------------|--------------------------|

C#|---------------------|-----------------|-------------------|-----------------|
G#|---------------------|-----------------|-------------------|-----------------|
E |-------10-----10-----|-----6-----6-----|-----10-----10-----|-----6-----6-----|
B |-----7------7------7-|---5-----5-----5-|---7------7------7-|---5-----5-----5-|
F#|---8------8------8---|-7-----7-----7---|-8------8------8---|-7-----7-----7---|
B |---------------------|-----------------|-------------------|-----------------|

C#|--------------------------|--------------------------|
G#|--------------------------|--------------------------|
E |--7--7--7--7--7--7--7--7--|--9--9--9--9--9--9--9--9--|
B |--x--x--x--x--x--x--x--x--|--x--x--x--x--x--x--x--x--|
F#|--5--5--5--5--5--5--5--5--|--7--7--7--7--7--7--7--7--|
B |--------------------------|--------------------------|

[Verse] "But last night, you said you ended up at Palm Springs..."
C#|--------|-------|-----|
G#|--------|-------|-----|
E |-----10-|-----9-|-----|
B |---7----|---7---|---7-| [x4]
F#|-8------|-8-----|-8---|
B |--------|-------|-----|
 PM |-------------------|

C#|----------|----------|-------|
G#|----------|----------|-------|
E |-------14-|-------12-|-------|
B |----11----|----11----|----11-| [x4]
F#|-12-------|-12-------|-12----|
B |----------|----------|-------|
 PM |-------------------------|

C#|--------|-----|--------|-----|--------|-----|--------|-----|
G#|--------|-----|--------|-----|--------|-----|--------|-----|
E |-10-10--|-10--|-10-10--|-10--|--------|-----|--------|-----|
B |--7--7--|--7--|--7--7--|--7--|--7--7--|--7--|--7--7--|--7--|
F#|--8--8--|--8--|--8--8--|--8--|--7--7--|--7--|--7--7--|--7--|
B |--------|-----|--------|-----|--7--7--|--7--|--7--7--|--7--|

"I guess it's time to say goodnight. Hope you had a really good..."

C#|-------------------------------------------------|------|
G#|-------------------------------------------------|------|
E |-7-7-7-7-7-7-7-7-7-7-7-7-7-7-7-7-7-7-7-7-7-7-7-7-|--6---|
B |-x-x-x-x-x-x-x-x-x-x-x-x-x-x-x-x-x-x-x-x-x-x-x-x-|--5---|
F#|-5-5-5-5-5-5-5-5-5-5-5-5-5-5-5-5-5-5-5-5-5-5-5-5-|--7---|
B |-------------------------------------------------|------|

"...Time..."

C#|--------|-------|-----|
G#|--------|-------|-----|
E |-----10-|-----9-|-----|
B |---7----|---7---|---7-| [x4]
F#|-8------|-8-----|-8---|
B |--------|-------|-----|
 PM |-------------------|

"Good time..."

C#|----------|----------|-------|
G#|----------|----------|-------|
E |-------14-|-------12-|-------|
B |----11----|----11----|----11-| [x4]
F#|-12-------|-12-------|-12----|
B |----------|----------|-------|
 PM |-------------------------|

[Solo/Instrumental]
C#|-------------|---------|---------|-------------|---------|---------|-------------|-------------|
G#|-------------|---------|---------|-------------|---------|---------|-------------|-------------|
E |-10-10-10-10-|-5-5-5-5-|-2-2-2-2-|-12-12-12-12-|-9-9-9-9-|-5-5-5-5-|-15-15-15-15-|-14-14-14-14-|
B |--x--x--x--x-|-x-x-x-x-|-2-2-2-2-|--x--x--x--x-|-x-x-x-x-|-x-x-x-x-|--x--x--x--x-|--x--x--x--x-|
F#|--8--8--8--8-|-3-3-3-3-|-0-0-0-0-|-10-10-10-10-|-7-7-7-7-|-3-3-3-3-|-13-13-13-13-|-12-12-12-12-|
B |-------------|---------|---------|-------------|---------|---------|-------------|-------------|

C#|---------|---------|-------------|-------------|-------------------------|-------------------------|----|
G#|---------|---------|-------------|-------------|-------------------------|-------------------------|----|
E |-7-7-7-7-|-9-9-9-9-|-10-10-10-10-|-12-12-12-12-|-17-17-17-17-17-17-17-17-|-15-15-15-15-15-15-15-15-|-14-|
E |-x-x-x-x-|-x-x-x-x-|--x--x--x--x-|--x--x--x--x-|--x--x--x--x--x--x--x--x-|--x--x--x--x--x--x--x--x-|--x-|
F#|-5-5-5-5-|-7-7-7-7-|--8--8--8--8-|-10-10-10-10-|-15-15-15-15-15-15-15-15-|-13-13-13-13-13-13-13-13-|-12-|
B |---------|---------|-------------|-------------|-------------------------|-------------------------|----|

"And I will soon forget the color of your eyes and you'll forget mine."

C#|---------------------|-----------------|-------------------|-----------------|
G#|---------------------|-----------------|-------------------|-----------------|
E |-------10-----10-----|-----6-----6-----|-----10-----10-----|-----6-----6-----|
B |-----7------7------7-|---5-----5-----5-|---7------7------7-|---5-----5-----5-|
F#|---8------8------8---|-7-----7-----7---|-8------8------8---|-7-----7-----7---|
B |---------------------|-----------------|-------------------|-----------------|

C#|-----------------|-----------------------|-----------------|-------------------|
G#|-----------------|-----------------------|-----------------|-------------------|
E |-----------------|-----------------------|-----------------|-------------------|
B |-----8-----8-----|-----7-----7---------7-|-8-8-8-8-8-8-8-8-|-10-10-10-10-10-10-|
F#|---8-----8-----8-|---7-----7-------------|-8-8-8-8-8-8-8-8-|-10-10-10-10-10-10-|
B |-8-----8-----8---|-7-----7--------7------|-8-8-8-8-8-8-8-8-|-10-10-10-10-10-10-|

[Chorus] ("So keep in happiness and torture me...")
C#|---------------------|-----------------|-------------------|-----------------|
G#|---------------------|-----------------|-------------------|-----------------|
E |-------10-----10-----|-----6-----6-----|-----10-----10-----|-----6-----6-----|
B |-----7------7------7-|---5-----5-----5-|---7------7------7-|---5-----5-----5-|
F#|---8------8------8---|-7-----7-----7---|-8------8------8---|-7-----7-----7---|
B |---------------------|-----------------|-------------------|-----------------|

C#|------------------------|------------|-------------|
G#|------------------------|------------|-------------|
E |-7--7--7--7--7--7--7--7-|-9--9--9--9-|-10-10-10-10-|
B |-x--x--x--x--x--x--x--x-|-x--x--x--x-|-x--x--x--x--|
F#|-5--5--5--5--5--5--5--5-|-7--7--7--7-|-8--8--8--8--|
B |------------------------|------------|-------------|

C#|---------------------|-----------------|-------------------|-------|---|
G#|---------------------|-----------------|-------------------|-------|---|
E |-------10-----10-----|-----6-----6-----|-----10-----10-----|---6---|---|
B |-----7------7------7-|---5-----5-----5-|---7------7------7-|---5---|---|
F#|---8------8------8---|-7-----7-----7---|-8------8------8---|---7---|---|
B |---------------------|-----------------|-------------------|-------|-7-|

C#|------------------------|------------|-------------|
G#|------------------------|------------|-------------|
E |-7--7--7--7--7--7--7--7-|-9--9--9--9-|-10-10-10-10-|
B |-x--x--x--x--x--x--x--x-|-x--x--x--x-|-x--x--x--x--|
F#|-5--5--5--5--5--5--5--5-|-7--7--7--7-|-8--8--8--8--|
B |------------------------|------------|-------------|

"It'll be alright"
C#|--------------------------|----------------------------------|
G#|--------------------------|----------------------------------|
E |--------------------------|----------------------------------|
B |--8--8--8--8--8--8--8--8--|--10--10--10--10--10--10--10--10--|
F#|--8--8--8--8--8--8--8--8--|--10--10--10--10--10--10--10--10--|
B |--8--8--8--8--8--8--8--8--|--10--10--10--10--10--10--10--10--|

C#|------|
G#|------|
E |--10--|
B |---7--|
F#|---8--|
B |------|

"But last night you said you ended up at Palm Springs dancing on tables."

FIN.

I know it's not %100 accurate but I thought I'd give this a shot since all the other tabs were either in
Standard or Drop D.

************************************

| x   Dead note
| /   Slide up
| \   Slide down
| PM  Palm mute

************************************

            
            
Suggest correction
Creating personal tab
Creating personal tab
You can edit any tab online and save it as your Personal.

You can edit, replace or remove any tab part or add personal notes – all changes will be seen only by you.

Personal tabs can be accessed anytime from any device, even offline.
Learn more »
Give kudos to tab author, rate the tab!
1 2 3 4 5
comments
print report bad tab
guest
You may want to rate the tab now too:
select rating
Wanna post a correction for this tab? Suggest correction