Oops, an error
Loading. Please wait.

Just The Way You Are Bass Tab

8,854 views 33 this week
no commentswrite comment
1 2 3 4 5
accurate
x 3
add to favorites
launch autoscroll
font size
0
reset
guitar tuner
Tab Pro tools
  • play this tab
  • loop segment
  • change instrument
  • show fretboard
  • metronome
×
Best way to learn
"Just The Way You Are"
Autoscroll
slow
fast
+/-
esc
set tempo
stop
Contributor
-------------------------------------------------------------------------------
                   JUST THE WAY YOU ARE - Pierce the Veil
-------------------------------------------------------------------------------

Tabbed By : n00bzilla99
Tuning: Drop D (DADG)

  Intro (0:00)
G|-----------------------------------------------|
D|-----------------------------------------------|
A|-----------------------------------------------|
D|---1/3~~~~~--3-5-3~~~~-3-5-3~~5/10~~-3-5-3~~~~-|

  Verse (0:18)
G|----REST----|
D|----REST----|
A|----REST----|
D|----REST----| Then

(0:28)
G|-----------------------------------------------------------------------------|
D|-----------------------------6-----------------------------------------------|
A|-----------------------------------------------------------------------------|
D|---12\33--333-333-333-333-33---555-55-555----33333333-8888888888-8888888888--|

G|----------------------------------------------------|
D|----------------------------------------------------|
A|----------------------------------------------------|
D|-000-000-8-7-3-1/-000-00-00-0~---333333333333333----|

  Chorus (0:55)
G|-----------------------------------------------------------------------|
D|-----------------------------------------------------------------------|
A|-888888888888-7777-55555555555555--------------------------------------|
D|----------------------------------7777-88888888-10(x6)---33-3-33-3-33--|

G|-------------------------------------------------------------------------------------|
D|-------------------------------------------------------------------------------------|
A|-888888888888-7-11-12-9-55555555555555-1212-1010-88-77-------------------------------|
D|-------------------------------------------------------888888888--101010101010-3(x10)|


  Verse 2 (1:31)
G|----------------------------------------------------------------------|
D|----------------------------------------------------------------------|
A|-------------------------------------------------8-7-5-3-5-7-8888888--|
D|---3~---3~-3333--00000000000000000000-0~--00--00----------------------|

  (1:50)
G|--------------------------------------------------------------------------------------|
D|--------------------------------------------------------------------------------------|
A|--------------------------------------------------------------------------------------|
D|-0-0-0-0-0-0-0-0--0-0-0-0-0-0-0-0-78888888888888888-1010101010101010-3333333333333333-|

  (2:07)
G|-------|
D|-------|
A|-------|
D|--10\--|

  Chorus 2 (2:09)
G|-----------------------------------------------------------------------|
D|-----------------------------------------------------------------------|
A|-888888888888-7777-55555555555555--------------------------------------|
D|----------------------------------7777-88888888-10(x6)---33-3-33-3-33--|

G|------------------------------------------------------------------------|
D|------------------------------------------------------------------------|
A|-888888888888-7-11-12-9-55555555555555-1212-1010-88-77------------------|
D|------------------------------------------------------888888888-101010/-|

  Bridge (2:39)
G|--------------------------------------------------|
D|--------------------------------------------------|
A|--------------------------------------------------|
D|-3333333333333333-3333333333335555-00000000000000-|

G|--------------------------| G|:---------------------------|
D|--------------------------| D|:---------------------------|
A|--------------------------| A|:---------------------------| x2
D|-77-888888888888-10101010-| D|:3--3-3--3--3--3-3--3-3-----|


  Outro (3:20)
G|---------------------------------------------------|
D|---------------------------------------------------|
A|---------------------------------------------------|
D|-3333333333333333--0~-3-10-8-5-7-8~~~~~~-10~~--3~~~|


| /  slide up
| \  slide down
| h  hammer-on
| p  pull-off
| ~  vibrato
| +  harmonic
| x  Mute note
===============================================================================


Should be pretty good.  I'm not the greatest at alternate tunings, so apologies in
advance if I'm off.  Watch the timing in Verse 2; there are a few pauses that I didn't have
space to note.  If you listen to the song, you should get it no problem!  Please rate! :)
comments
We did not receive enough feedback on this tab! Please rate:
print report bad tab
1 2 3 4 5
I want to post or [tab]
guest
You may want to rate the tab now too:
select rating
Please do not post tabs as comments. Select "correction" instead!