Oops, an error
Loading. Please wait.

Just The Way You Are Tab

version 1
version 1

Whole song

Interactive

61,620 views 105 this week
2 commentsread comments
1 2 3 4 5
x 20
add to favorites
launch autoscroll
font size
0
reset
how to read this tab
guitar tuner
Autoscroll
slow
fast
+/-
esc
set tempo
stop
Help us to improve Ultimate-Guitar.com Take our survey!
×
Author
Tuning
D A D G B E
Drop D tuning (E B G D A D)


E|------------------------------------------------------------|
B|-------------------15^(17)-15~--15-17-18-13-17-13-----------|
G|---------------------------------------------------15~------|
D|-3------3-----0---------------------------------------------|
A|-3------3-----0---------------------------------------------|
D|-3------3-8*--0---------------------------------------------|

E|------------------------------------------------|
B|------------------------------------------------|
G|------------------------------------------------|
D|-(7-8)--------(7-8)--(5-7)--3~------------------|
A|------------------------------------------------|
D|------------------------------------------------|

E|----------------------------------------------------------------------|
B|----------------------------------------------------------------------|
G|-101010101010101010101010101010101010101010999977777777777777777777---|
D|--------------------------------------------------------------------8-|
A|-8-8-8-8-8-8-8-8-8-8-8-8-8-8-8-8-8-8-8-8-8-777755555555555555555555-8-|
D|--------------------------------------------------------------------8-|

pm . . . . . . . . . . . . . . . . . . . . . . . . . . . . . . . . . . . . . . . . .

E|------------------------------------------------------------------------------------|
B|------------------------------------------------------------------------------------|
G|------10-10-9-9-----------10-10-9-9------------10-10-9-9------------10-10-9-9-------|
D|----------------10-10---------------10-10----------------10-10----------------10-10-|
A|--8-8------------------8-8-----------------8-8------------------8-8-----------------|
D|------------------------------------------------------------------------------------|

  . . . . . . . . . . . . . . . . . . . . .

E|-----------------------------------------------------------------------|
B|------10-10-8-8------------10-10-8-8-----------------------------------|
G|---------------10-10-----------------10-10-----10-9----12-10-9-10~-----|
D|---------------------------------------------------10------------------|
A|--8-8------------------8-8------------------8--------------------------|
D|-----------------------------------------------------------------------|

E|----------------------------------------------------------|
B|----------------------------------------------------------|
G|------------------77-7--7-77--77-7--7-7-10-9--------------|
D|-3333333333333333----------------------------10-8\--------|
A|-3333333333333333-55-5--5-55--55-5--5-5-8--7--------------|
D|-3333333333333333----------------------------10-8\--------|

E|------------------------------------------------|
B|------------------------------------------------|
G|-10-9-----10-9----101010101010101010101010------|
D|------10-------10-------------------------------|
A|------------------------------------------------|
D|------------------------------------------------|


chorus

E|-------------------------------------------------|
B|-------------------------------------------------|
G|-14-14-14-14-14-14-14-14-14-14-14-14-12-12-15-15-|
D|-------------------------------------------------|
A|-12-12-12-12-12-12-12-12-12-12-12-12-10-10-13-13-|
D|-------------------------------------------------|

E|-------------------------------------------------|
B|-------------------------------------------------|
G|-10-10-10-10-10-10-10-10-10-10-10-10-12-12-12-15-|
D|-------------------------------------------------|
A|-8--8--8--8--8--8--8--8--8--8--8--8--10-10-10-13-|
D|-------------------------------------------------|


                                     pm  . .       . .       . .       . .

E|-------------------------------------|------------------------------------------|
B|-------------------------------------|------6-5-------6-5-------6-5-------6-5---|
G|-7-7-7-7-7-7-7-7-7-7-7-7-10-10-12-12-|----------5---------5---------5---------5-|
D|-------------------------------------|------------------------------------------|
A|-5-5-5-5-5-5-5-5-5-5-5-5-8--8--10-10-|--3-3-------3-3-------3-3-------3-3-------|
D|-------------------------------------|--3-3-------3-3-------3-3-------3-3-------|

E|-------------------------------------------------|
B|-------------------------------------------------|
G|-14-14-14-14-14-14-14-14-14-14-14-14-12-12-15-15-|
D|-------------------------------------------------|
A|-12-12-12-12-12-12-12-12-12-12-12-12-10-10-13-13-|
D|-------------------------------------------------|

E|-------------------------------------------------|
B|-------------------------------------------------|
G|-10-10-10-10-10-10-10-10-10-10-10-10-12-12-12-15-|
D|-------------------------------------------------|
A|-8--8--8--8--8--8--8--8--8--8--8--8--10-10-10-13-|
D|-------------------------------------------------|


E|-------------------------------------|------------------------------------------------------|
B|-------------------------------------|----------------------------11-10-11-13-11-10-11-13~--|
G|-7-7-7-7-7-7-7-7-7-7-7-7-10-10-12-12-|-14-14-14-15-17-17-17-15-14---------------------------|
D|-------------------------------------|------------------------------------------------------|
A|-5-5-5-5-5-5-5-5-5-5-5-5-8--8--10-10-|-12-12-12-13-15-15-15-13-12---------------------------|
D|-------------------------------------|------------------------------------------------------|

 her lips, her lips, I could Kiss them all if she'd let me
E|--------------------------------------------------------|
B|--------------------------------------------------------|
G|---------------------------10\--------------------------|
D|--------------------------------------------------------|
A|---------------------------8-\---------------------17\--|
D|--------------------------------------------------------|

       Her laugh,    her laugh        She hates but i think it's so sexy
E|---------------------------------------------------------------------|
B|---------------------------------------------------------------------|
G|-10-10-10-9-9-9-5--10-10-10-9-9-9-5--1414141414141414-10-10-10-7-7-7-|
D|---------------------------------------------------------------------|
A|-8--8--8--7-7-7-3--8--8--8--7-7-7-3--1212121212121212-8--8--8--5-5-5-|
D|---------------------------------------------------------------------|

 She's so beautiful and i tell her everyday
E|--------------------------------------------------------------|
B|--------------------------------------------------------------|
G|------------------------------------------14--12--10-9-10-14--|
D|--------------------------------------------------------------|
A|------------------------------------------12--10--8--7-8--10--|
D|--------------------------------------------------------------|

E|--------------------------------------------------------------------|
B|--------------------------------------------------------------------|
G|-14---14---14---14---14---14---14-12--10--10--10--10--10--10--10-12-|
D|--------------------------------------------------------------------|
A|-12---12---12---12---12---12---12-10--8---8---8---8---8---8---8--10-|
D|--------------------------------------------------------------------|

E|------------------------------------------------------------------------------------|
B|------------------------------------------------------------------------------------|
G|------10-10-9-9-----------10-10-9-9------------10-10-9-9------------10-10-9-9-------|
D|----------------10-10---------------10-10----------------10-10----------------10-10-|
A|--8-8------------------8-8-----------------8-8------------------8-8-----------------|
D|------------------------------------------------------------------------------------|

E|------------------------------------------------|
B|------------------------------------------------|
G|------10-10-9-9-----~------10-10-9-9--------14--|
D|----------------10-10----------------10-10------|
A|--8-8------------------8-8------------------12--|
D|------------------------------------------------|

chorus

E|-------------------------------------------------|
B|-------------------------------------------------|
G|-14-14-14-14-14-14-14-14-14-14-14-14-12-12-15-15-|
D|-------------------------------------------------|
A|-12-12-12-12-12-12-12-12-12-12-12-12-10-10-13-13-|
D|-------------------------------------------------|

E|-------------------------------------------------|
B|-------------------------------------------------|
G|-10-10-10-10-10-10-10-10-10-10-10-10-12-12-12-15-|
D|-------------------------------------------------|
A|-8--8--8--8--8--8--8--8--8--8--8--8--10-10-10-13-|
D|-------------------------------------------------|

                                     pm  . .       . .       . .       . .

E|-------------------------------------|------------------------------------------|
B|-------------------------------------|------6-5-------6-5-------6-5-------6-5---|
G|-7-7-7-7-7-7-7-7-7-7-7-7-10-10-12-12-|----------5---------5---------5---------5-|
D|-------------------------------------|------------------------------------------|
A|-5-5-5-5-5-5-5-5-5-5-5-5-8--8--10-10-|--3-3-------3-3-------3-3-------3-3-------|
D|-------------------------------------|--3-3-------3-3-------3-3-------3-3-------|

E|-------------------------------------------------|
B|-------------------------------------------------|
G|-14-14-14-14-14-14-14-14-14-14-14-14-12-12-15-15-|
D|-------------------------------------------------|
A|-12-12-12-12-12-12-12-12-12-12-12-12-10-10-13-13-|
D|-------------------------------------------------|

E|-------------------------------------------------|
B|-------------------------------------------------|
G|-10-10-10-10-10-10-10-10-10-10-10-10-12-12-12-15-|
D|-------------------------------------------------|
A|-8--8--8--8--8--8--8--8--8--8--8--8--10-10-10-13-|
D|-------------------------------------------------|


E|-----------------------------|
B|-----------------------------|
G|-7-7-7-7-7-7-7-7-7-7-7-7--7--|
D|-----------------------------|
A|-5-5-5-5-5-5-5-5-5-5-5-5--5--|
D|-----------------------------|

 bridge build-up
      . . . . . . . . . . . .
E|------------------------------------|
B|------------------------------------|
G|------------------------------------|
D|-3--3-3-3-3-3-3-3-3-3-3-3-3-3-3-3-3-|
A|-3--3-3-3-3-3-3-3-3-3-3-3-3-3-3-3-3-|
D|-3--3-3-3-3-3-3-3-3-3-3-3-3-3-3-3-3-|

E|---------------------------------|
B|---------------------------------|
G|---------------------------------| repeat 3 times!
D|-3---3---------------------------|
A|-------3---3---1-0---1-3---3-1-0-|
D|---3-----3---3-----3-----3-------|

   . .. .. .. ..       . .. .. .. ..
E|.|----------------------------------|
B|-----------------------------------|
G|-----------------------------------|
D|---------------3h5p3---------------|
A|-3-33-33-33-33-------3-33-33-33-33-|
D|-3-33-33-33-33-------3-33-33-33-33-|

(little piano/synth riff played on the guitar)

E|--------------------------------------------|
B|--------------------------------------------|
G|---10-9-------10-9-10----10-9-------10-9-10-|
D|--------10--------------------10------------|
A|-8----------8----------8----------8---------|
D|--------------------------------------------|

E|--------------------------------------------------------|
B|-------------------------------------------10^(11)10~~--|
G|-----------------------------------3--3-----------------|
D|-3-333333333333333-0---------------3--3-----------------|
A|-3-333333333333333-0-------3-1-0---1--1-----------------|
D|-3-333333333333333-0---0-3-------3----------------------|



************************************

* = pinch (artificial) harmonic
^ = bend, note in parenthesis is the note you are supposed to reach with the bend
~ = vibrato
() = trill

************************************
Suggest correction
comments
print report bad tab
2 comments total.
+1 reply
jBracken_2010 103 Nov 03, 2011 03:38 AM

Pretty nice tab. It's missing some stuff, but great for getting you started. 4*

0 reply
kryztianvidal 10 May 26, 2014 08:04 PM

Creo que es asi esta parte...
. .. .. .. .. . .. .. .. ..
.|----------------------------------|
|-----------------------------------|
|-----------------------------------|
|---------------2h3p2---------------|
|-3-33-33-33-33-------3-33-33-33-33-|
|-3-33-33-33-33-------3-33-33-33-33-|

guest
You may want to rate the tab now too:
select rating
Wanna post a correction for this tab? Suggest correction