Oops, an error
Loading. Please wait.

King For A Day bass

version 2
version 2

Whole song

Interactive

9,479 views 36 this week
5 commentsread comments
1 2 3 4 5
x 10
add to favorites
×
Save as Personal and add changes to this tab that will be seen only by you. Learn more ›
×
You can save this tab as Personal to edit and correct it or add notes. All changes will be seen only by you. Learn more »
launch autoscroll
font size
0
reset
guitar tuner
edit
Autoscroll
slow
fast
+/-
esc
set tempo
stop
-------------------------------------------------------------------------------
            Pierce the Veil - King for a Day (feat. Kellin Quinn)
-------------------------------------------------------------------------------

Tabbed by: XxThreeCheersxX      
E-mail: phantomhiveghost@gmail.com

Tuning: B E A D

Intro (no bass)

Verse I-A
D|---------------------------------------------------------------------|
A|---------------------------------------------------------------------|
E|-----------------------6--6-6-----6-7-6-6------------6(x16)/18(x16)\-|
B|-0--0-0-----0--0-0----------------------------0(x32)-----------------|

Verse I-B (Kellin enters)
D|-----------------------------------------------------------------------------|
A|-----------------------------------------------------------------------------|
E|-3-33-333-333-3333-33-333-333-3332-22-222-222-222/14-1414-141414-141414 14\3-|
B|-----------------------------------------------------------------------------|

D|---------------5-544----44-------------------------S|
A|--------------------7755--77557--------------------T|
E|-33-333-333-333------------------------------------O|
B|-------------------------------7-77-777-777-77777--P|


Chorus
D|--------------------------------|
A|--------------------------------|
E|--------3(x16)-0(x16)-2(x16)----|
B|-0(x16)----------------------0~-|

Post-Chorus (I spaced the notes out so they would be easier to read; obviously played very fast.
D|------------------------------|
A|------------------------------|
E|----6h9-6h9-6h9-6h9-6h9-6h9-6-| x 2
B|-0-0--------------------------|

Verse II-A
D|------------------------------------|
A|------------------------------------|
E|----7h10-7h10-7h10-7h10-7h10-7h10-7-| x 2
B|-0-0--------------------------------|

D|------------------------------|
A|------------------------------|
E|----6h9-6h9-6h9-6h9-6h9-6h9-6-| x 2
B|-0-0--------------------------|

D|------------------------------------|
A|------------------------------------|
E|----7h10-7h10-7h10-7h10-7h10-7h10-7-| x 2
B|-0-0--------------------------------|

D|------------------------------|
A|------------------------------|
E|----6h9-6h9-6h9-6h9-6h9-6h9-6-| 
B|-0-0--------------------------|

D|-------------------------------|
A|-------------------------------|
E|----6h9-6h9-6h9-6h9-6h9-6h9----|
B|-0-0------------------------8~-| 

Verse II-B (Kellin enters)
D|--------------5-544----44----------------------5-55-555-555-555--------|
A|-------------------7755--775577----------------------------------------|
E|-2-222-222-222-----------------3-33-333-333-333----------------2(x24)--|
B|-----------------------------------------------------------------------|


Chorus II
D|---------------------------------------------------------|
A|---------------------------------------------------------|
E|--------3(x16)-0(x16)-2(x16)--------3(x16)-0(x16)-2(x9)--|
B|-0(x16)----------------------0(x16)----------------------|

Bridge
D|------------------------------------------------|
A|----------------------------------2(x16)--------|
E|--------------------1(x32)---------------1(x17)-|
B|-0~---0~-----0(x32)--------0(x16)---------------|

Breakdown Pt-I
D|-----------------------------------|
A|-----------------------------------|
E|---------7--9--10---------7--9--10-|
B|-0-000000--0--0---0-000000--0--0---|
                                               Both lines x2
D|--------------------------------|
A|--------------------------------|
E|---------7--9--10---------10--9-|
B|-6-666666--6--6---6-666666---6--|

Breakdown Pt-II
D|--------------------------------|
A|--------------------------------|
E|-------7--9--10-------7--9--10--|
B|-0(x8)--77-77--7-0(x8)-77-77--7-|
                                               Both lines x2
D|--------------------------------|
A|--------------------------------|
E|-------7--9--10-------7--9--10--| 
B|-6(x8)--77-77--7-6(x8)-77-77--7-|

Final Chorus
D|----------------------------------------|
A|----------------------------------------|
E|-----------3(x5)-----0(x5)--------------|
B|-0(x5)--------------------------3/7(x5)-|

D|----------------------------|
A|----------------------------|
E|--------3(x16)-0(x16)-2(x9)-|
B|-0(x16)---------------------|

End with
D|-----------|
A|-----------|
E|-----------|
B|-0-0-0-0-0-|

Happy playing!
If you have any suggestions/corrections comment or email me!
Suggest correction
Creating personal tab
Creating personal tab
You can edit any tab online and save it as your Personal.

You can edit, replace or remove any tab part or add personal notes – all changes will be seen only by you.

Personal tabs can be accessed anytime from any device, even offline.
Learn more »
comments
print report bad tab
5 comments total. Showing first comments.
0 reply
MrMetalb0y 10 Feb 11, 2014 04:51 PM

how can you drop your E string all the way down to B?

0 reply
XxHarleyquinnxX 10 Mar 23, 2015 06:10 PM

Or you can get a Hipshot freerange Extender that has a switch that tunes your E string down to B.

guest
You may want to rate the tab now too:
select rating
Wanna post a correction for this tab? Suggest correction