Oops, an error
Loading. Please wait.

Million Dollar Houses Tab

139 views 9 this week
no commentswrite comment
1 2 3 4 5
x 5
add to favorites
launch autoscroll
font size
0
reset
how to read this tab
guitar tuner
Autoscroll
slow
fast
+/-
esc
set tempo
stop
Help us to improve Ultimate-Guitar.com Take our survey!
×
Author
Difficulty
Tuning
intermediate
D A D G B E
                         Tabs by "Pierce The Vegan" and Beverly Valley (same person) on YouTube: 
Pierce The Vegan - https://www.youtube.com/channel/UC3c-1ZDochB5sX-EMVW4PxQ
Beverly Valley - https://www.youtube.com/channel/UCb75kwZnHUZ9O7YzbRxzCpA

My "Million Doll Hair Houses" acoustic guitar cover: https://www.youtube.com/watch?v=Qd1VIc4teVk
My "Million Doll Hair Houses" chords tabs: 
https://tabs.ultimate-guitar.com/p/pierce_the_veil/million_dollar_houses_ver4_crd.htm

TUNING: DROP D

************************************

| /         Slide up
| \         Slide down
| h         Hammer-on
| p         Pull-off
| p         ("p" also means "palm mute" if it's directly under a tab chart)
| ~         Let note ring ("~" usually means "vibrato," but not for this tab)
| [ ]       Natural harmonic
| [+ ]      Pinch harmonic
| ( )       Indicates notes on the 10th fret or higher when necessary
| |L-O-O-P| Indicates when specific tab charts contain select sets of notes that essentially repeat themselves

************************************



[Intro]

"So what if I was just a painter? Painting houses on the rich blue coast? (blue coast) 
Would you ever try to..."
  |----------16 strums----------| |-----------16 strums---------|
e|5-5-5-5-5-5-5-5-5-5-5-5-5-5-5-5-5-5-5-5-5-5-5-5-5-5-5-5-5-5-5-5-|
B|6-6-6-6-6-6-6-6-6-6-6-6-6-6-6-6-6-6-6-6-6-6-6-6-6-6-6-6-6-6-6-6-|
G|7-7-7-7-7-7-7-7-7-7-7-7-7-7-7-7-6-6-6-6-6-6-6-6-6-6-6-6-6-6-6-6-|
D|----------------------------------------------------------------|
A|----------------------------------------------------------------|
D|----------------------------------------------------------------|
 
"Leave me, for somebody who deserves you most? 'Cause darling I am just a..."
  |--9 strums-----| |-7 strums--| |------13 strums--------|
e|6-6-6-6-6-6-6-6-6-5-5-5-5-5-5-5-6-6-6-6-6-6-6-6-6-6-6-6-6-6-6-6-|
B|6-6-6-6-6-6-6-6-6-6-6-6-6-6-6-6-6-6-6-6-6-6-6-6-6-6-6-6-6-8-8-8-|
G|3-3-3-3-3-3-3-3-3-3-3-3-3-3-3-3-6-6-6-6-6-6-6-6-6-6-6-6-6-6-6-6-|
D|----------------------------------------------------------------|
A|----------------------------------------------------------------|
D|----------------------------------------------------------------|

"Painter. I'm painting houses for the rich old folks (old folks). I'm gonna make a million...
e|5-5-5-5-5-8-8-8-8-6-6-6-6-5-5-5-5-5-5-5-5-8-8-8-8-6-6-6-6-5-5-5-|
B|6-6-6-6-6-6-6-6-6-6-6-6-6-6-6-6-6-6-6-6-6-6-6-6-6-6-6-6-6-6-6-6-|
G|7-7-7-7-7-7-7-7-7-7-7-7-7-7-7-7-6-6-6-6-6-6-6-6-6-6-6-6-6-6-6-6-|
D|----------------------------------------------------------------|
A|----------------------------------------------------------------|
D|----------------------------------------------------------------|

"Doll hairs,'cause nobody's gonna steal you, no, for diamonds and..."
e|--6-5-6~~~6-5-6~~~6-5-6~~~6-5-6~~~6-5-6~~~6-5-6~~~6-5-6~~~6-5-6-|
B|----------------------------------------------------------------|
G|3~~~~~~~3~~~~~~~3~~~~~~~3~~~~~~~6~~~~~~~6~~~~~~~6~~~~~~~6~~~~~~-|
D|----------------------------------------------------------------|
A|----------------------------------------------------------------|
D|----------------------------------------------------------------|

"Gold (gold, gold). For diamonds and gold (gold, gold).
e|----0~~~~~~~0~~~~~~~0~~~~~~~0~~~~~~~0~~~~~~~0~~~~~~~0~~~~~~~0~~-|
B|--6~~~6~~~6~~~6~~~6~~~6~~~6~~~6~~~6~~~6~~~6~~~6~~~6~~~6~~~6~~~6-|
G|7~~~~~~~7~~~~~~~7~~~~~~~7~~~~~~~7~~~~~~~7~~~~~~~7~~~~~~~7~~~~~~-|
D|----------------------------------------------------------------|
A|----------------------------------------------------------------|
D|----------------------------------------------------------------|




[Chorus]

"'Cause I've broken bones for you, and for you only. I make money but we just can't keep this..."
e|----------------------------------------------------------------------------------------|
B|----------------------------------------------------------------------------------------|
G|15-15-15-15-15-15-14-14-12-12-12-12-12-12-12-12-7--10--10-7--10--10-9--9---9--12-12--12-|
D|x--x--x--x--x--x--x--x--x--x--x--x--x--x--x--x--x--x---x--x--x---x--x--x---x--x--x---x--|
A|13-13-13-13-13-13-12-12-10-10-10-10-10-10-10-10-5--8---8--5--8---8--7--7---7--10-10--10-|
D|----------------------------------------------------------------------------------------|

"Home - give me your heart and your hand and we can..."
e|-----------------------------------------------------------------|
B|-----------------------------------------------------------------|
G|10-10-10-10-10-10-10-10-12-12-12-12-9-9-9-9----------------------|
D|x--x--x--x--x--x--x--x--x--x--x--x--x-x-x-x----------------------|
A|8--8--8--8--8--8--8--8--10-10-10-10-7-7-7-7----------------------|
D|-----------------------------------------------------------------|
 
"Run! We can run, we can run, baby, run now. We can run, baby, run! She's like a bullet through an..."
e|----------------------------------------------------------------------15-|
B|----------------------------------------------------------------------x--|
G|---------------------------------------------------------2------------0--|
D|0-0----0-----------0-0----0-----------0-0----0-----------0---------------|
A|0-0----0-----------0-0----0-----------0-0----0-----------0---------------|
D|0-0-15-0-14--10/12~0-0-15-0-14--10/12~0-0-15-0-14--10/12-0---------------|



[Verse 2]

(If you strive to be as cool as I am, haha. :D Then you might want to consider playing this sick-nasty 
bass part on the guitar in place of the chords.)

        [*BASS PART*]
"Ocean, I still remember how you moved so slow (so slow). You tried to kill me with a..." 
e|-----------------------------------------------------------------|
B|-----------------------------------------------------------------|
G|-----------------------------------------------------------------|
D|-----------------------------------------------------------------|
A|5-0-3-5----0-3-5-0-1-0------------4-0-4-4---0-4-4--0-4-0-5-0-8\7-|
D|-----------------------5----0-3-0--------------------------------|


(And here are two regular ways to play this part - one with the lead part, and one without:)

"Ocean, I still remember how you moved so slow (so slow). You tried to kill me with a..." 
e|5~~~~~~~~~~~~~~~6~~~~~~~~~~~~~~~5~~~~~~~~~~~~~~~~~~~~~~~~~~~~~~~|
B|6~~~~~~~~~~~~~~~6~~~~~~~~~~~~~~~5~~~~~~~~~~~~~~~~~~~~~~~~~~~~~~~|
G|7~~~~~~~~~~~~~~~7~~~~~~~~~~~~~~~6~~~~~~~~~~~~~~~~~~~~~~~~~~~~~~~|
D|----------------------------------------------------------------|
A|----------------------------------------------------------------|
D|----------------------------------------------------------------|

"Ocean, I still remember how you moved so slow (so slow). You tried to kill me with a..."
e|5~~~~~~~~~~~~~~~6~~~~~~~~~~~~~~~5~~~~~~~~----------------------------|
B|6~~~~~~~~~~~~~~~6~~~~~~~~~~~~~~~5~~~~~~~~-----6-8-8/10-8-6-8-6-8~~~~~|
G|7~~~~~~~~~~~~~~~7~~~~~~~~~~~~~~~6~~~~~~~~-5\7------------------------|
D|---------------------------------------------------------------------|
A|---------------------------------------------------------------------|
D|---------------------------------------------------------------------|

"Shotgun... Bang! Now we're even, we don't stop till someone's bleeding..."
  |--8 strums---| |--8 strums---| |--8 strums---| |--8 strums---|
e|5-5-5-5-5-5-5-5-6-6-6-6-6-6-6-6-5-5-5-5-5-5-5-5-3-3-3-3-3-3-3-3-|
B|6-6-6-6-6-6-6-6-6-6-6-6-6-6-6-6-5-5-5-5-5-5-5-5-6-6-6-6-6-6-6-6-|
G|7-7-7-7-7-7-7-7-7-7-7-7-7-7-7-7-6-6-6-6-6-6-6-6-5-5-5-5-5-5-5-5-|
D|----------------------------------------------------------------|
A|----------------------------------------------------------------|
D|----------------------------------------------------------------|

"We don't stop till someone's bleeding). I've broken..."
e|----------------------------------|
B|----------------------------------|
G|----------------7/9-9/10-10/14-14~|
D|0h2-2/3-3/7-7/8-------------------|
A|----------------------------------|
D|----------------------------------|




[Chorus 2]

"Bones for you, and for you only. I make money but we just can't keep this..."
e|----------------------------------------------------------------------------------------|
B|----------------------------------------------------------------------------------------|
G|15-15-15-15-15-15-14-14-12-12-12-12-12-12-12-12-7--10--10-7--10--10-9--9---9--12-12--x--|
D|x--x--x--x--x--x--x--x--x--x--x--x--x--x--x--x--x--x---x--x--x---x--x--x---x--x--x---x--|
A|13-13-13-13-13-13-12-12-10-10-10-10-10-10-10-10-5--8---8--5--8---8--7--7---7--10-10--x--|
D|----------------------------------------------------------------------------------------|

"Home - give me your heart and your hand and we can run! We can run, we can run, baby, run now.
We can run, baby, run, baby, you're my hope!
e|----------------------5-------------------------------------------------------------------------------|
B|6-6-6-6-6-6-6-6-----5~--8-6-5-------------------------------------------------------------------------|
G|x-x-x-x-x-x-x-x---6~~~--------5/7---------------------------------------------------------------------|
D|3-3-3-3-3-3-3-3-7~~~~~----------0-0----0-----------0-0----0-----------0-0----0-----------0-0----0-----|
A|--------------------------------0-0----0-----------0-0----0-----------0-0----0-----------0-0----0-----|
D|--------------------------------0-0-15-0-14--10/12~0-0-15-0-14--10/12~0-0-15-0-14--10/12~0-0-15-0-14\-|



[Interlude]

e|--5~~~5~~~5~~~5~~~5~~~5~~~5~~~5~~~5~~~5~~~5~~~5/~~3~~~3~~~3~~~3/|
B|----8~~~~~~~8~~~~~~~8~~~~~~~8~~~~~~~8~~~~~~~8~~/~~~~6~~~~~~~6~~/|
G|7~~~~~~~7~~~~~~~7~~~~~~~7~~~~~~~7~~~~~~~7~~~~~~/5~~~~~~~5~~~~~~/|
D|----------------------------------------------------------------|
A|----------------------------------------------------------------|
D|----------------------------------------------------------------|

e|--5~~~5~~~5~~~5~~~5~~~5~~~5~~~5~~~5~~~5~~~5~~~5/~~3~~~3~~~3~~~3~|
B|----8~~~~~~~8~~~~~~~8~~~~~~~8~~~~~~~6~~~~~~~6~~~~~~~6~~~~~~~6~~~|
G|7~~~~~~~7~~~~~~~7~~~~~~~7~~~~~~~5~~~~~~~5~~~~~~~5~~~~~~~5~~~~~~~|
D|----------------------------------------------------------------|
A|----------------------------------------------------------------|
D|----------------------------------------------------------------|
       

************************************
        *[Solo]*

e|------------------------------------------------------------------------------------|
B|------------------------------------------------------------------------------------|
G|------------------------------------------------------------------------------------|
D|------------------------------------------------------------------------------------|
A|-/12~11~10~8~5~3~5~~-/12~10~8~7~~~\3~~~/5--/12~11~10~8~5~3~5~~-/12~10~8~7~~~\3~~~/5-|
D|0-------------------0---------------------0-------------------0---------------------|


************************************


[Bridge]
                                                               
"Permanently yours!"
e|-----------------------------------------------------------------|
B|-----------------------------------------------------------------|
G|7-7-----------------------------7-7-----------------2------------|
D|0-0-----------------------------0-0-----------------0------------|
A|0-0-----------------------------0-0-----------------0------------|
D|0-0-----------------------------0-0-----------------0------------|

"Sometimes the moon looks brighter than the sun (than the sun). As..."
e|----0~~~~~~~0~~~~~~~0~~~~~~~0~~~~~~~0~~~~~~~0~~~~~~~0~~~~~~~0~~~|
B|--6~~~6~~~6~~~6~~~6~~~6~~~6~~~6~~~6~~~6~~~6~~~6~~~6~~~6~~~6~~~6~|
G|7~~~~~~~7~~~~~~~7~~~~~~~7~~~~~~~6~~~~~~~6~~~~~~~6~~~~~~~6~~~~~~~|
D|----------------------------------------------------------------|
A|----------------------------------------------------------------|
D|----------------------------------------------------------------|

"Times like this run up my wrist, she hates all of the guts and blood..."
e|~~~~0~~~~~~~0~~~~~~~0~~~~~~~0~~~~~~~0~~~~~~~0~~~~~~~0~~~~~~~0~~-|
B|~~6~~~6~~~6~~~6~~~6~~~6~~~6~~~6~~~6~~~6~~~6~~~6~~~6~~~6~~~6~~~6-|
G|5~~~~~~~5~~~~~~~5~~~~~~~5~~~~~~~4~~~~~~~4~~~~~~~4~~~~~~~4~~~~~~-|
D|----------------------------------------------------------------|
A|----------------------------------------------------------------|
D|----------------------------------------------------------------|

"Splash around with me while we move like flames on burning sheets. And your..."
e|----0~~~~~~~0~~~~~~~0~~~~~~~0~~~~~~~0~~~~~~~0~~~~~~~0~~~~~~~0~~~|
B|--6~~~6~~~6~~~6~~~6~~~6~~~6~~~6~~~6~~~6~~~6~~~6~~~6~~~6~~~6~~~6~|
G|7~~~~~~~7~~~~~~~7~~~~~~~7~~~~~~~6~~~~~~~6~~~~~~~6~~~~~~~6~~~~~~~|
D|----------------------------------------------------------------|
A|----------------------------------------------------------------|
D|----------------------------------------------------------------|

"Doctor won't stop calling me her medication. But baby no..."
e|~~~~0~~~~~~~0~~~~~~~0~~~~~~~0~~~~~~~0~~~~~~~0~~~~~~~0~~~~~~~0~~-|
B|~~6~~~6~~~6~~~6~~~6~~~6~~~6~~~6~~~6~~~6~~~6~~~6~~~6~~~6~~~6~~~6-|
G|5~~~~~~~5~~~~~~~5~~~~~~~5~~~~~~~4~~~~~~~4~~~~~~~4~~~~~~~4~~~~~~-|
D|----------------------------------------------------------------|
A|----------------------------------------------------------------|
D|----------------------------------------------------------------|


        [*PIANO PART*]

"Sometimes things don't work out the way we planned. To live is just to fall asleep, to..."
e|13~~~~~~17~~~~~~15~~~~~~~~~~~~~-17~~~~~~~~~~~~~~12~~~~~-17~~~~~-15~~~~~~~~~~~~~-13~~~~~~12~~~~~~|
B|x-------------------------------x-----------------------x-------x---------------x-------x-------|
G|10~~~~~~~~~~~~~~~~~~~~~~~~~~~~~-x-----------------------x-------x---------------10~~~~~~9~~~~~~~|
D|--------------------------------11~~~~~~~~~~~~~~~~~~~~~-14~~~~~-10~~~~~~~~~~~~~-----------------|
A|------------------------------------------------------------------------------------------------|
D|------------------------------------------------------------------------------------------------|
                                       
 (The single natural harmonic                           (And yeah, I guess the 9th fret natural harmonic 
  on the 5th fret sounds so                             sounds pretty awful, too. I prefer the 5th fret, but
  disgusting - it's awesome.)                         I'm just giving you options, OKAY? GOSH! FRICKIN' JERK!)
"Die is to awaaaaaaaaaaaaaaaaaaaaaa..."                                              
e|-----------------------[5]~~~~~~~|                         e|-----------------------[9]~~~~~~~|    
B|11~~~~~~~~~~~~~~~~~~~~~----------|                         B|11-~~~~~~~~~~~~~~~~~~~~----------|
G|x--------------------------------|                         G|x--------------------------------|
D|8~~~~~~~~~~~~~~~~~~~~~~----------|                         D|8~~~~~~~~~~~~~~~~~~~~~~----------|
A|---------------------------------|                         A|---------------------------------|
D|---------------------------------|                         D|---------------------------------|

"Aaaaaaaaaaaaaaaaaaaaaaaaaaaaaaaaaaaake!!! (Ahhhhhhhhhhhhhhhhhh)..."
  99999999000000000000000099999999
  |--8 strums---| |----------16 strums----------| |--8 strums---|
e|6-6-6-6-6-6-6-6-5-5-5-5-5-5-5-5-5-5-5-5-5-5-5-5-5-5-5-5-5-5-5-5-|
B|6-6-6-6-6-6-6-6-6-6-6-6-6-6-6-6-6-6-6-6-6-6-6-6-6-6-6-6-6-6-6-6-|
G|7-7-7-7-7-7-7-7-7-7-7-7-7-7-7-7-7-7-7-7-7-7-7-7-6-6-6-6-6-6-6-6-|
D|----------------------------------------------------------------|
A|----------------------------------------------------------------|
D|----------------------------------------------------------------|

"(Ohhhhhhhhhhhhhwahhhhhhhhhhh, aaaaaaaah, aaaaaaaahh, aaaaaahhh). Maybe we're meant..."
  |--8 strums---| |----------16 strums----------| |--8 strums---|
e|6-6-6-6-6-6-6-6-5-5-5-5-5-5-5-5-5-5-5-5-5-5-5-5-5-5-5-5-5-5-5-5-|
B|6-6-6-6-6-6-6-6-6-6-6-6-6-6-6-6-6-6-6-6-6-6-6-6-6-6-6-6-6-6-6-6-|
G|7-7-7-7-7-7-7-7-7-7-7-7-7-7-7-7-7-7-7-7-7-7-7-7-6-6-6-6-6-6-6-6-|
D|----------------------------------------------------------------|
A|----------------------------------------------------------------|
D|----------------------------------------------------------------|


"To lose the ones we love, but I'll fight for you till then. And if they stole..."
  |--8 strums---|  |---------15 strums---------|  |--8 strums-|
e|6-6-6-6-6-6-6-6--5-5-5-5-5-5-5-5-5-5-5-5-5-5-5--5-5-5-5-5-5-5-|
B|6-6-6-6-6-6-6-6--6-6-6-6-6-6-6-6-6-6-6-6-6-6-6--6-6-6-6-6-6-6-|
G|7-7-7-7-7-7-7-7--7-7-7-7-7-7-7-7-7-7-7-7-7-7-7--6-6-6-6-6-6-6-|
D|--------------------------------------------------------------|
A|--------------------------------------------------------------|
D|--------------------------------------------------------------|

"You from me, on my arm, there's a tattoo of your name. I've broken..."
  |--8 strums---|  |---------15 strums---------|  |--8 strums-|
e|6-6-6-6-6-6-6-6--5-5-5-5-5-5-5-5-5-5-5-5-5-5-5--5\--------------|
B|6-6-6-6-6-6-6-6--6-6-6-6-6-6-6-6-6-6-6-6-6-6-6--6\--------------|
G|7-7-7-7-7-7-7-7--7-7-7-7-7-7-7-7-7-7-7-7-7-7-7--6\--------------|
D|----------------------------------------------------------------|
A|----------------------------------------------------------------|
D|----------------------------------------------------------------|




[Chorus 3]

"Bones for you, and for you only. I make money, but FUCK MONEY, WE WANT..."
e|----------------------------------------------------------------------------------------|
B|----------------------------------------------------------------------------------------|
G|15-15-15-15-15-15-14-14-12-12-12-12-12-12-12-12-7--10--10-7--10--10-9--9---9--12-12--12-|
D|x--x--x--x--x--x--x--x--x--x--x--x--x--x--x--x--x--x---x--x--x---x--x--x---x--x--x---x--|
A|13-13-13-13-13-13-12-12-10-10-10-10-10-10-10-10-5--8---8--5--8---8--7--7---7--10-10--10-|
D|----------------------------------------------------------------------------------------|

"LOVE - give me your heart and your hand and we can..."
e|----------------------------------------------------------------|
B|----------------------------------------------------------------|
G|10-10-10-10-10-10-10-10-12-12-12-12-9-9-9-9---------------------|
D|x--x--x--x--x--x--x--x--x--x--x--x--x-x-x-x---------------------|
A|8--8--8--8--8--8--8--8--10-10-10-10-7-7-7-7---------------------|
D|----------------------------------------------------------------|


"Run! We can run, we can run, we can run, we can run, we can run, we can run!"
e|-----------------------------------------------------------------------------|
B|-----------------------------------------------------------------------------|
G|2-2----2-----------2-2----2-----------2-2----2-----------2-2----2------------|
D|0-0----0-----------0-0----0-----------0-0----0-----------0-0----0------------|
A|0-0----0-----------0-0----0-----------0-0----0-----------0-0----0------------|
D|0-0----0-----------0-0----0-----------0-0----0-----------0-0----0------------|




I super, mega hope this helps you out and you like it. If you're a UG author, you enjoy my tabs and you up 
vote them, you'll make it so much easier for me to publicize future stellar tablature like this. 
Myself and many others will be very grateful for your support. :)

My name's Demetrius - again, my YouTube channels: 
Pierce The Vegan - https://www.youtube.com/channel/UC3c-1ZDochB5sX-EMVW4PxQ
Beverly Valley - https://www.youtube.com/channel/UCb75kwZnHUZ9O7YzbRxzCpA

And again, here's my "Million Doll Hair Houses" acoustic guitar cover:  
https://www.youtube.com/watch?v=Qd1VIc4teVk




YOU ALREADY KNOW WHAT IT IS - GO AHEAD AND KICK THEM LYRICS OLD-SCHOOL ONE TIME FOR ME, DJ:

[Intro]
So what if I was just a painter?
Painting houses on the rich blue coast? (blue coast)
Would you ever try to leave me,
For somebody who deserves you most?

[Verse 1]
'Cause darling I am just a painter.
I'm painting houses for the rich old folks (old folks).
I'm gonna make a million dollars,
'Cause nobody's gonna steal you, no,
For diamonds and gold (gold, gold).
For diamonds and gold (gold, gold).

[Chorus]
'Cause I've broken bones for you, and for you only.
I make money but we just can't keep this home.
Give me your heart and your hand and we can run!
We can run, we can run, baby, run now.
We can run, baby, run.

[Verse 2]
She's like a bullet through an ocean,
I still remember how you moved so slow (so slow).
You tried to kill me with a shotgun.
Bang! Now we're even,
We don't stop till someone's bleeding.
(We don't stop till someone's bleeding)

[Chorus]
I've broken bones for you, and for you only.
I make money but we just can't keep this home.
Give me your heart and your hand and we can run!
We can run, we can run, baby, run now.
We can run, baby, run, baby,
You're my hope!

[Bridge]
Permanently yours (permanently yours).
Sometimes the moon looks brighter than the sun (than the sun).
As times like this run up my wrist, she hates all of the guts and blood.
Splash around with me while we move like flames on burning sheets,
And your doctor won't stop calling me her medication.
But baby no, sometimes things don't work out the way we planned.
To live is just to fall asleep, to die is to awaken.

[Bridge]
Maybe we're meant to lose the ones we love,
But I'll fight for you till then.
And if they stole you from me,
On my arm there's a tattoo of your name.

[Outro]
I've broken bones for you, and for you only.
I make money, but fuck money we want love.
Give me your heart and your hand and we can run!
We can run, we can run, we can run,
We can run, we can run, we can run!
Suggest correction
comments
print report bad tab
guest
You may want to rate the tab now too:
select rating
Wanna post a correction for this tab? Suggest correction