Oops, an error
Loading. Please wait.

One Hundred Sleepless Nights Tab

version 1
version 1

Whole song

  • Vast corrections for strum patterns, chorus, verse... Show more

Interactive

19,032 views 18 this week
5 commentsread comments
1 2 3 4 5
x 4
add to favorites
launch autoscroll
font size
0
reset
how to read this tab
guitar tuner
×
Best way to learn
"One Hundred Sleepless Nights"
Autoscroll
slow
fast
+/-
esc
set tempo
stop
Author
Tuning
  follow
C# G# C# F# A# D#
One Hundred Sleepless Nights by Pierce The Veil
TUNING: Drop c# (C#G#C#F#A#D#)

This is my second tab and it may not be 100% correct.

D#|-----------------------|
A#|-----------------------|
F#|--7---8---10---13------|
C#|--7X6-8X6-10X6-13-X6---|
G#|--5---6----8---11------|
C#|-----------------------|

  ALL PALM MUTED
D#|-----------------------------|
A#|-----------------------------|
F#|----9---12---9---8---11---8--|
C#|--9---9----9---9---9----9----| X3
G#|-----------------------------|
C#|-----------------------------|

D#|----------------------------|
A#|----------------------------|
F#|----9---12---9---11---12----|
C#|--9---9----9-----11X6-12----| Last notes aren't palm muted
G#|------------------9---10----|
C#|----------------------------|

Palm Muted-------------------

D#|--------------------------------------------|
A#|--------------------------------------------|
F#|----9---12---9---8---11---8----11--11----12-|
C#|--9---9----9---9---9----9---X3-11--11-X6-12-|
G#|-------------------------------9---9-----10-|
C#|--------------------------------------------|

D#|---------------------------------------|
A#|---------------------------------------|
F#|----9---12---9---8---11---8----11---12-|
C#|--9---9----9---9---9----9-- X3-11X6-12-|
G#|--------------------------------9---10-|
C#|---------------------------------------|

  at 0:33 you can play
D#|------------------------------------|
A#|--13-12-10-8-7-7h8h7-8h10h8-7h8h7---|
F#|---------------------------------8--|
C#|------------------------------------|
G#|------------------------------------|
C#|------------------------------------|
    Figure out the strum patterns

D#|----------------------|
A#|----------------------|
F#|--9-8-9-8-11---12-----|
C#|--9-8-9-8-11X6-12X6---|
G#|--7-6-7-6-9----10-----|
C#|----------------------|

  Guitar 2
  Not sure on this part
D#|-----------------------9h11h9-----------------|
A#|--5-7-8-5-4\0--8-8h10h8---------8h10h8-7------|
F#|----------------------------------------------|
C#|----------------------------------------------|
G#|----------------------------------------------|
C#|----------------------------------------------|

Chorus

  Guitar 1
  Figure out the strum patterns
D#|-----------------------------------------|
A#|-----------------------------------------|
F#|--9---11-12-19-17-16-14-16-14-12-11-8-11-|
C#|--9---11-12-19-17-16-14-16-14-12-11-8-11-|
G#|--7---9--10-17-15-14-12-14-12-10-9--6-9--|
C#|-----------------------------------------|

  Guitar 2
  Figure out the strum pattarns
D#|----------------------------|
A#|----------------------------|
F#|----------------------------|
C#|--2-4-5-12-10-9-7-9-7-5-4-1-|
G#|--2-4-5-12-10-9-7-9-7-5-4-1-|
C#|--2-4-5-12-10-9-7-9-7-5-4-1-|

  Guitar 1
D#|-----------------------------|
A#|-----------------------------|
F#|----9---12---9---8---11---8--|
C#|--9---9----9---9---9----9----| X2
G#|-----------------------------|
C#|-----------------------------|

  Guitar 2
D#|--t17p10p8-t16p10p8-|
A#|--------------------|
F#|--------------------|
C#|--------------------|
G#|--------------------|
C#|--------------------|

  Guitar 1
  Figure out the strum patterns
D#|----------|
A#|----------|
F#|--9-8-9-8-|
C#|--9-8-9-8-|
G#|--7-6-7-6-|
C#|----------|

  Guitar 2
D#|------------------|
A#|------------------|
F#|------------------|
C#|--5-4-2-0-2-4 X16-|
G#|------------------|
C#|------------------|

  Next Part
D#|----------------------|
A#|----------------------|
F#|--9-8-9-8-11---12-----|
C#|--9-8-9-8-11X6-12X6---|
G#|--7-6-7-6-9----10-----|
C#|----------------------|

  Guitar 2
  Not sure on this part
D#|-----------------------9h11h9-----------------|
A#|--5-7-8-5-4\0--8-8h10h8---------8h10h8-7------|
F#|----------------------------------------------|
C#|----------------------------------------------|
G#|----------------------------------------------|
C#|----------------------------------------------|

"Mannnnnnnnnnnn!"

D#|-------------|
A#|-------------|
F#|--9-9-9---11-|
C#|--9-9-9X6-11-|X6
G#|--7-7-7---9--|
C#|-------------|

  Chorus
  Guitar 1
  Figure out the strum patterns
D#|------------------------------------------|
A#|------------------------------------------|
F#|--9---11-12-19-17-16-14-16-14-12-11-8-11--|
C#|--9---11-12-19-17-16-14-16-14-12-11-8-11--| X2
G#|--7---9--10-17-15-14-12-14-12-10-9--6-9---|
C#|------------------------------------------|

  Guitar2
  Figure out the strum pattarns
D#|-----------------------------|
A#|-----------------------------|
F#|-----------------------------|
C#|--2-4-5-12-10-9-7-9-7-5-4-1--| X2
G#|--2-4-5-12-10-9-7-9-7-5-4-1--|
C#|--2-4-5-12-10-9-7-9-7-5-4-1--|

  Guitar 1
D#|--------------------|
A#|--t17p10p8-t16p10p8-|
F#|--------------------|
C#|--------------------|
G#|--------------------|
C#|--------------------|

  Guitar 2
  palm muted
D#|---------|
A#|---------|
F#|--4-2-0--|
C#|---------|
G#|---------|
C#|---------|
NOT SURE ON THIS PART

D#|--2h3p2--------|
A#|---------4h5p4-|
F#|---------------|
C#|---------------|
G#|---------------|
C#|---------------|

D#|--5p4----------|
A#|-------4-4h5p4-|
F#|---------------|
C#|---------------|
G#|---------------|
C#|---------------|

D#|--5p4p0-|
A#|--------|
F#|--------|
C#|--------|
G#|--------|
C#|--------|

  Guitar 1
  Figure out the strum patterns
D#|------------------------------------------|
A#|------------------------------------------|
F#|--9---11-12-19-17-16-14-16-14-12-11-8-11--|
C#|--9---11-12-19-17-16-14-16-14-12-11-8-11--| X2
G#|--7---9--10-17-15-14-12-14-12-10-9--6-9---|
C#|------------------------------------------|

  Guitar 2
  Figure out the strum pattarns
D#|----------------------------|
A#|----------------------------|
F#|----------------------------|
C#|--2-4-5-12-10-9-7-9-7-5-4-1-|
G#|--2-4-5-12-10-9-7-9-7-5-4-1-|
C#|--2-4-5-12-10-9-7-9-7-5-4-1-|

  Next PArt
  Figure out strum patterns
D#|---------------------------------------------------|
A#|---------------------------------------------------|
F#|---------------------------------------------------|
C#|---------------------------------------------------|
G#|---------------------------------------------------|
C#|--2-4-4-4-5-5-5-12-12-12-10-8h9--10-12-10-9-10-9-8-|

  Guitar 1
  Figure out strum patterns
D#|-----------|
A#|-----------|
F#|--16-14-12-|
C#|--16-14-12-|
G#|--14-12-10-|
C#|-----------|

Guitar 2

D#|--------|
A#|--------|
F#|--------|
C#|--9-7-5-|
G#|--9-7-5-|
C#|--9-7-5-|

  Palm Muted
D#|-----|
A#|-----|
F#|-----|
C#|--5--|
G#|--5--|
C#|--5--|

D#|--------------------------|
A#|--------5-7-8-9-------3-4-|
F#|--5-7-9---------8-7-5-----|
C#|--------------------------| Repet several times
G#|--------------------------|
C#|--------------------------|

Guitar 2 near the end of that of Guitar 1

  Once again- figure out the strum patterns
D#|--------------------|
A#|--------------------|
F#|--------------------|
C#|--2-2-2-2-1-1-1-1-2-|
G#|--2-2-2-2-1-1-1-1-2-|
C#|--2-2-2-2-1-1-1-1-2-|

FIN

************************************

| h  Hammer-on
| \  Slide down
| p  Pull-off
| t  Tapping

************************************
Suggest correction
comments
print report bad tab
5 comments total. Showing first comments.
+1 reply
IlikeMudkipz 108 Jul 28, 2012 07:36 AM

the intro is

|----------------------
|---------------------
|--8---9---11---14-----
|--8X6-9X6-11X6-14-X6--
|--6---7----9---12-----
|----------------------

-1 reply
13TheZip 31 May 22, 2013 07:37 AM

This sucks

-2 reply
13TheZip 31 May 22, 2013 07:42 AM

If your not freaking sure then why would you put it up??

guest
You may want to rate the tab now too:
select rating
Wanna post a correction for this tab? Suggest correction