Oops, an error
Loading. Please wait.

Phantom Power And Ludicrous Speed tab

3,935 views 27 this week
8 commentsread comments
1 2 3 4 5
x 7
add to favorites
×
Save as Personal and add changes to this tab that will be seen only by you. Learn more ›
×
You can save this tab as Personal to edit and correct it or add notes. All changes will be seen only by you. Learn more »
launch autoscroll
font size
0
reset
how to read this tab
guitar tuner
edit
Autoscroll
slow
fast
+/-
esc
set tempo
stop
[Intro]

C#|--------------------------------------------------------------------------------------------------------|
G#|--------------------------------------------------------------------------------------------------------|
F#|-14-14-14-14-14-14-14-14-10-10-10-10-10-10-10-10-7-7-7-7-7-7-7-7-12-12-12-12-12-12-12-12----------------|
C#|--------------------------------------------------------------------------------------------------------|
G#|-12-12-12-12-12-12-12-12--8--8--8--8--8--8--8--8-5-5-5-5-5-5-5-5-10-10-10-10-10-10-10-10----------------|
C#|--------------------------------------------------------------------------------------------------------|

C#|----------------------------------------------------------------------------------------------|
G#|--------------------------------------------------------------------------------------6-------|
F#|-14-14-14-14-14-14-14-14-10-10-10-10-10-10-10-10-7-7-7-7-7-7-7-7-12-12-12-12-<7>------9-------|
C#|--------------------------------------------------------------------------------<7>-----------|
G#|-12-12-12-12-12-12-12-12--8--8--8--8--8--8--8--8-5-5-5-5-5-5-5-5-10-10-10-10--------8---------|
C#|----------------------------------------------------------------------------------------------|


[Verse]

C#|-------------------------------------------------------------------------------|
G#|-------------------------------------------------------------------------------|
F#|------7-7-7-7-7-5-5-5-10-10-10-------------------------------------------------|
C#|-0-0---------------------------------------------------------------------------|
G#|-0-0--5-5-5-5-5-3-3-3--8--8--8-------------------------------------------------|
C#|-0-0----------------------------5-3-5-5-3-5-5-3-8-8-8-8-8-7-7------------------|

C#|---------------------------------------------------------------------------|
G#|-----------13-15-13--------------10----11-10-------------------------------|
F#|-------14-----------14--------10----10-------10----------------------------|
C#|--12-15----------------15--10-------------------10-------------------------|
G#|---------------------------------------------------------------------------|
C#|---------------------------------------------------------------------------|

C#|---------------------------------------------------------------------------|
G#|---------------------------------------------------------------------------|
F#|---------------------------------------------------------------------------|
C#|--5-5-5-5-5-5-5-5-5-5-5-5-5-5-5-5------------------------------------------|
G#|--5-5-5-5-5-5-5-5-5-5-5-5-5-5-5-5------------------------------------------|
C#|--5-5-5-5-5-5-5-5-5-5-5-5-5-5-5-5------------------------------------------|


[Pre-Chorus])

C#|--------------------------------------------------------------------------------------------|
G#|--------------------------------------------------------------------------------------------|
F#|--------------------------------------------------------------------------------------------|
C#|--------------------------------------------------------------------------------------------|
G#|-12-12-12-8-8-8-5-5-5-8-8-10/12-12-12-8-8-8-5-5-5-8-8-8-10/12-12-12-7-7-7-4-4-4-7-7-10/12---|
C#|--------------------------------------------------------------------------------------------|

C#|---------------------------------------------------/----------------|
G#|---------------------------------------------------/----------------|
F#|---------------------------------------------------/----------------|
C#|--------------------------------------0------------/----------------|
G#|-12-12-----12-12----------------------0------------/----------------|
C#|-------0-0-------12-11-11-11-14-14-14-0------------/----------------|
                                                          Pick slide            

[Chorus]

C#|---------------------------------------------------------------------------|
G#|---------------------------------------------------------------------------|
F#|-7-7-7-7-7-7-7-7-9-9-9-9-11-11-11-11-6-6-6-6-6-6-6-6-6-6-6-6-6-6-6-6-------|
C#|---------------------------------------------------------------------------|
G#|-5-5-5-5-5-5-5-5-7-7-7-7--9--9--9--9-4-4-4-4-4-4-4-4-4-4-4-4-4-4-4-4-------|
C#|---------------------------------------------------------------------------|


C#|------------------------------------------------------------------------------------------------------|
G#|------------------------------------------------------------------------------------------------------|
F#|-------------------------------------------------13-13-13-13-13-13-13-13-12-12-12-12-10-10-10-10------|
C#|-3-3-3-3-3-3-3-3-3-3-3-3-7-7-7-7-7-7-7-7-7-7-7-8------------------------------------------------------|
G#|-3-3-3-3-3-3-3-3-3-3-3-3-7-7-7-7-7-7-7-7-7-7-7-8-11-11-11-11-11-11-11-11-10-10-10-10--8--8--8--8------|
C#|-3-3-3-3-3-3-3-3-3-3-3-3-7-7-7-7-7-7-7-7-7-7-7-8------------------------------------------------------|


[Verse]

C#|--------------------------------------------------|
G#|--------------------------------------------------|
F#|--------------------------------------------------|
C#|-12-12-12-12-12-12-12-12-10-10-10-10-15-15-15-15--|
G#|-12-12-12-12-12-12-12-12-10-10-10-10-15-15-15-15--|
C#|-12-12-12-12-12-12-12-12-10-10-10-10-15-15-15-15--|

D#|-------------------------------------|
A#|-------------------------------------|
F#|-------------------------------------|
C#|-------------------------------------|
G#|-------------------------------------|
C#|-5-3-5-5-3-5-5-3-8-8-8-8-8-8-8-7-----|

D#|--------------------------------------------------------------|
A#|--------------------------------------------------------------|
F#|-3-3-3-3-3-3-3-3-2-2-2-2-2-2-2-2-8-8-8-8-8-8-8-8--------------|
C#|-------------------------------------------------7------------|
G#|-1-1-1-1-1-1-1-1-1-1-1-1-1-1-1-1-6-6-6-6-6-6-6-6-7------------|
C#|-------------------------------------------------7------------|

D#|----------------------------------------------------|
A#|----------------------------------------------------|
F#|--7-7--5-5------------------------------------------|
C#|--7-7--5-5------------------------------------------|
G#|--5-5--3-3------------------------------------------|
C#|-----------5-3-5-5-3-5-5-3-8-8-8-8-8-8-8-7----------|

D#|-------------------------------------|
A#|-------------------------------------|
F#|-------------------------------------|
C#|-7-7--7--7--9--9---------5-----------|
G#|-5-5--5--5--7--7---5-7-8-------------|
C#|-------------------------------------|

D#|---------------------------------------------------|
A#|---------------------------------------------------|
F#|--7-7-7-7--9-9-9-9-10-10-10-10-12-12-12-12---------|
C#|---------------------------------------------------|
G#|--5-5-5-5--7-7-7-7--8--8--8--8-10-10-10-10---------|
C#|---------------------------------------------------|

[Chorus]

[Pause]

D#|-------------------------------------|
A#|-------------------------------------|
F#|-6-6-6-6-6-6-6-6-6-6-6-6-6-6-6-6-----|
C#|-------------------------------------|
G#|-4-4-4-4-4-4-4-4-4-4-4-4-4-4-4-4-----|
C#|-------------------------------------|

D#|---------------------------------------------------------------------|
A#|---------------------------------------------------------------------|
F#|---------------------------------------------------------------------|
C#|-3-3-3-3-3-3-3-3-3-3-3-3-3-3-3-3-7-7-7-7-7-7-7-7-7-7-7-7-7-7-7-7-----|
G#|-3-3-3-3-3-3-3-3-3-3-3-3-3-3-3-3-7-7-7-7-7-7-7-7-7-7-7-7-7-7-7-7-----|
C#|-3-3-3-3-3-3-3-3-3-3-3-3-3-3-3-3-7-7-7-7-7-7-7-7-7-7-7-7-7-7-7-7-----|

D#|------------------------------------------|
A#|------------------------------------------|
F#|------------------------------------------|
C#|-8-8-8---------------------11-------------|
G#|-8-8-8------------------------12----------|
C#|-8-8-8--3-3-3-3-3-3-3-3-/8-------14-------|

                             
                           x2                                Slowly bend the F# string
D#|-------|-------------------------------------------------|------------------------------|
A#|-------|-------------------------------------------------|------------------------------|
F#|-------|-13-13-13-13-13-13-13-13-12-12-12-12-10-10-10-10-|-13-13-13-13-13-13-13-13------|
C#|-------|-------------------------------------------------|------------------------------|
G#|-8-8-8-|-11-11-11-11-11-11-11-11-10-10-10-10--8--8--8--8-|-11-11-11-11-11-11-11-11------|
C#|-8-8-8-|-------------------------------------------------|------------------------------|

[Break down]

(Listen to the song for the rhythm and follow the amount of times it is played)

pm| ---------------------------------------------------------
D#|-------------------------------------------------------------|
A#|-------------------------------------------------------------|
F#|-------------------------------------------------------------|
C#|-------------------------------------------------------------|
G#|-0-0-0--0-0-0--0-0-0-0-0-0-0--0-0-0--0-0-0--0-0-0-0-0-0-0----|
C#|-0-0-0--0-0-0--0-0-0-0-0-0-0--0-0-0--0-0-0--0-0-0-0-0-0-0----|

("Cold blood)(Listen to the song for the rhythm)

D#|----------------------------------------------------|
A#|---3h6p3h6p3h6p3h6p3h6p3h6p2h5p2h5p2h5p2h5p2h5p2h5p-|
F#|----------------------------------------------------|
C#|-0--------------------------------------------------|
G#|-0--------------------------------------------------|
C#|-0--------------------------------------------------|x2

pm|---
D#|-----------------------------------------------------|
A#|----3h6p3h6p3h6p3h6p3h6p3h6p2h5p2h5p2h5p2h5p2h5p2h5p-|
F#|-----------------------------------------------------|
C#|0-0--------------------------------------------------|
G#|0-0--------------------------------------------------|
C#|0-0--------------------------------------------------|

D#|----------------------------------------------------|
A#|---3h6p3h6p3h6p3h6p3h6p3h6p2h5p2h5p2h5p2h5p2h5p2h5p-|
F#|----------------------------------------------------|
C#|-0--------------------------------------------------|
G#|-0--------------------------------------------------|
C#|-0--------------------------------------------------|x2

 pm|---
D#|-----------------------------------------------------|
A#|----3h6p3h6p3h6p3h6p3h6p3h6p2h5p2h5p2h5p2h5p2h5p2h5p-|
F#|-----------------------------------------------------|
C#|0-0--------------------------------------------------|
G#|0-0--------------------------------------------------|
C#|0-0--------------------------------------------------|

D#|----------|
A#|----------|
F#|----------|
C#|----------|
G#|-----8-10-|
C#|-7-11-----|

[Pre-verse]

D#|---------------------------------------------------------------|
A#|---------------------------------------------------------------|
F#|---------------------------------------------------------------|
C#|---------------------------------------------------------------|
G#|-----------------------------5-5-5-5-5-5-5-5-----------3-3-3-3-|
C#|-5-5-5-5-5-5-5-5-5-5-5-5-3-5------------------3-3-3-3-3--------|

D#|----------------------------------------------------------------|
A#|----------------------------------------------------------------|
F#|----------------------------------------------------------------|
C#|----------------------------------------------------------------|
G#|----------------------------------------------------------------|
C#|-5-5-5-5-5-5-5-5-5-0-3-5-5-0-3-5-8-8-8-8-8-8-8-7----------------|

[Chorus]

C#|---------------------------------------------------------------------------|
G#|---------------------------------------------------------------------------|
F#|-7-7-7-7-7-7-7-7-9-9-9-9-11-11-11-11-6-6-6-6-6-6-6-6-6-6-6-6-6-6-6-6-------|
C#|---------------------------------------------------------------------------|
G#|-5-5-5-5-5-5-5-5-7-7-7-7--9--9--9--9-4-4-4-4-4-4-4-4-4-4-4-4-4-4-4-4-------|
C#|---------------------------------------------------------------------------|

D#|------------------------------------------------------------------|
A#|------------------------------------------------------------------|
F#|------------------------------------------------------------------|
C#|-3-3-3-3-3-3-3-3-3-3-3-3-3-3-3-3-7-7-7-7-7-7-7-7-7-7-7-7-7-7-7-7--|
G#|-3-3-3-3-3-3-3-3-3-3-3-3-3-3-3-3-7-7-7-7-7-7-7-7-7-7-7-7-7-7-7-7--|
C#|-3-3-3-3-3-3-3-3-3-3-3-3-3-3-3-3-7-7-7-7-7-7-7-7-7-7-7-7-7-7-7-7--|

D#|------------------------------------------------------------------------------------------|
A#|------------------------------------------------------------------------------------------|
F#|------------------------------------------------------------------------------------------|
C#|-8-8-8-8-8-8-8-8-8-8-8-8-3-3-3-3-3-3-3-3-7-7-7-7-7-7-7-7-8-8-8-8-8-8-8-8-8-8-8-8----------|
G#|-8-8-8-8-8-8-8-8-8-8-8-8-3-3-3-3-3-3-3-3-7-7-7-7-7-7-7-7-8-8-8-8-8-8-8-8-8-8-8-8----------|
C#|-8-8-8-8-8-8-8-8-8-8-8-8-3-3-3-3-3-3-3-3-7-7-7-7-7-7-7-7-8-8-8-8-8-8-8-8-8-8-8-8----------|

D#|------------------------------------------|
A#|------------------------------------------|
F#|------------------------------------------|
C#|-3-3-3-3-3-3-3-3-7-7-7-7-7-7-7-7----------|
G#|-3-3-3-3-3-3-3-3-7-7-7-7-7-7-7-7----------|
C#|-3-3-3-3-3-3-3-3-7-7-7-7-7-7-7-7----------|

[Outro]
Guitar I
D#|----------------------------------------------------------------------------------------------------------|
A#|----------------------------------------------------------------------------------------------------------|
F#|----------------------------------------------------------------------------------------------------------|
C#|----------------------------------------------------------------------------------------------------------|
G#|-12-12-12--12--12--12-12-10-10-10--10-10-10--10-10-8-8-8--8--8--8-8--5-5-5--5--5--5-5-5-7-7-7--7--7--7-7--|
C#|-12-12-12--12--12--12-12-10-10-10--10-10-10--10-10-8-8-8--8--8--8-8--5-5-5--5--5--5-5-5-7-7-7--7--7--7-7--|

Play the above once. Then

D#|----------------------------------------------------------------------------------------------------|
A#|----------------------------------------------------------------------------------------------------|
F#|-----------10-12/14-12-10----12-----------10-12/14-12-10------12-10-9---------10-12/14-12-10----12--|
C#|--12---/12---------------12------12---/12---------------10-9----------12---/12---------------12-----|
G#|----------------------------------------------------------------------------------------------------|
C#|----------------------------------------------------------------------------------------------------|


D#|----------------------------------------------------------------------------------------|
A#|----------------------------------------------------------------------------------------|
F#|-12b---12brp10---------------10-12/14-12-10------12-10-9----------10-12/14-12-10----12--|
C#|--------------12----12---/12----------------10-9---------12---/12---------------12------|
G#|----------------------------------------------------------------------------------------|
C#|----------------------------------------------------------------------------------------|

D#|-----------------------------------------------------------------------|
A#|-----------------------------------------------------------------------|
F#|-----------10-12/14-12-10----12-----------10-12/14-12-10------12-10-9--|
C#|--12---/12---------------12------12---/12---------------10-9-----------|
G#|-----------------------------------------------------------------------|
C#|-----------------------------------------------------------------------|

D#|-------------------------------------------------------------------|
A#|-------------------------------------------------------------------|
F#|-----------10-12/14-12-10----12-----------10-12/14-12-10-----------|
C#|--12---/12---------------12------12---/12------------------10---9--|
G#|-------------------------------------------------------------------|
C#|-------------------------------------------------------------------|

************************************

| /  Slide up
|< > Natural harmonic 
| ~  Vibrato
| b  Bend
| br Bend Release
| h  Hammer on
| p  Pull-off

************************************

            
            
Suggest correction
Creating personal tab
Creating personal tab
You can edit any tab online and save it as your Personal.

You can edit, replace or remove any tab part or add personal notes – all changes will be seen only by you.

Personal tabs can be accessed anytime from any device, even offline.
Learn more »
comments
print report bad tab
8 comments total. Showing first comments.
0 reply
langy999 143 May 21, 2016 07:58 AM

I'm glad someone has made this!! Sounds pretty good, I'm just not 100% sure about the chorus but I've not played it much :)

0 reply
langy999 143 May 21, 2016 08:12 AM

I think the breakdown uses hammer ons and pull offs and is on the A# string instead of the F#

0 reply
Nico_A7X 33 Jun 01, 2016 05:45 PM

Hey men it's pretty accurated the only thing the I've noted that is wrong is in the power chords of the chorus I've played two frets down, I mean instead of

C#|-------
G#|-------
F#|-9-9-9-
C#|-------
G#|-7-7-7-
C#|-------
I've played this
C#|---------------------------
G#|---------------------------
F#|-7-7-7-9-9-9-10-10-10-6-6-6
C#|---------------------------
G#|-5-5-5-7-7-7-8--8--8--4-4-4
C#|---------------------------

Nice tabs men keep it up..

guest
You may want to rate the tab now too:
select rating
Wanna post a correction for this tab? Suggest correction