Oops, an error
Loading. Please wait.

Props And Mayhem Tab

version 1
version 1

Whole song

Interactive

5,123 views 15 this week
no commentswrite comment
1 2 3 4 5
please rate
add to favorites
launch autoscroll
font size
0
reset
how to read this tab
guitar tuner
Autoscroll
slow
fast
+/-
esc
set tempo
stop
Help us to improve Ultimate-Guitar.com Take our survey!
×
Author
Difficulty
Tuning
novice
D A D G B E
-------------------------------------------------------------------------------
                             PROPS AND MAYHEM - Pierce The Veil
-------------------------------------------------------------------------------
Tabbed by:Mar100Rey

Tuning:Drop D

Intro:
G|---------------------------------------------------------------------------|
D|---------------------------------------------------------------------------|
A|---------------------------------------------------------------------------|
D|-2(x16)--7(x16)--00-000-0-1212-1010-99-77----------------------------------|

Verse 1/Pre-Chorus:
G|---------------------------------------------------------------------------|
D|---------------------------------------------------------------------------|
A|---------------------------------------------------------------------------|
D|-5(x8)-7777-5555--2(x8)-0-2(x8)--77-7-7-7-77-7-7-7-00-0-00-0-9-9-7-7-------|

G|---------------------------------------------------------------------------|
D|---------------------------------------------------------------------------|
A|---------------------------------------5(x8)-------------------------------|
D|-5(x8)-7777-5555--2(x8)-0-2(x8)--7(x8)---------0~--2~--4~--7~----/12-------|

Chorus:
G|---------------------------------------------------------------------------|
D|---------------------------------------------------------------------------|
A|---------------------------------------------------------------------------|
D|-5(x16)--2(x16)--7(x16)--0(x8)--7777-4444----------------------------------|

Verse 2:
G|---------------------------------------------------------------------------|
D|---------------------------------------------------------------------------|
A|------------------------------33-5-7-5-33-5-7-5--3(x8)-5-------------------|
D|-55-0-55-575--22-0-22-0-2-0------------------------------------------------|

G|---------------------------------------------------------------------------|
D|---------------------------------------------------------------------------|
A|----------------------3~-7-3--5~-------------------------------------------|
D|-55-55-5-7-5-22-0-22--------------/12---3----------------------------------|

Chorus 2:
G|---------------------------------------------------------------------------|
D|---------------------------------------------------------------------------|
A|------------------------------------------------3(x16)--5(x16)-------------|
D|-2(x16)--7(x16)--0(x8)-7777-4444-5--5-4--2(x16)----------------------------|

Bridge:
G|---------------------------------------------------------------------------|
D|---------------------------------------------------------------------------|
A|---------------------------------------------------------------------------|
D|-2(x16)--5(x16)--10(x16)--0(x8)--1(x8)-------------------------------------|

G|---------------------------------------------------------------------------|
D|---------------------------------------------------------------------------|
A|---------5h7----------2--3-3--3----5(x8)--6(x8)----------------------------|
D|-1--2-2-------4--5-5------------5----------------/12-----------------------|

G|---------------------------------------------------------------------------|
D|---------------------------------------------------------------------------|
A|----------2(x8)--5(x8)--3(x8)--------------5555--------6(x8)---------------|
D|-5(x16)-------------------------5555-44-55------55-77----------------------|

Chorus 3/Outro:
G|---------------------------------------------------------------------------|
D|---------------------------------------------------------------------------|
A|---------------------------------------------------------------------------|
D|-5(x16)--2(x16)--7(x16)-9999-7777-5555-5-5--2(x8)-7--5-7h9p7---------------|

G|---------------------------------------------------------------------------|
D|---------------------------------------------------------------------------|
A|------------------------------3(x16)--5(x8)--2(x6)-------------------------|
D|-5555-5-5--2(x8)-7--5-7h9p7-------------------------4(x6)--5---------------|


| /  slide up
| \  slide down
| h  hammer-on
| p  pull-off
| ~  vibrato
| +  harmonic
| x  Mute note
===============================================================================
Suggest correction
What's this?
You can suggest a correction to this tab. Community and Mods will review your correction and vote to approve or reject it.
comments
We did not receive enough feedback on this tab! Please rate:
print report bad tab
1 2 3 4 5
guest
You may want to rate the tab now too:
select rating
Please do not post tabs as comments. Select "correction" instead!