Oops, an error
Loading. Please wait.

Sambuka tab

3,220 views 18 this week
no commentswrite comment
1 2 3 4 5
x 7
add to favorites
×
Save as Personal and add changes to this tab that will be seen only by you. Learn more ›
×
You can save this tab as Personal to edit and correct it or add notes. All changes will be seen only by you. Learn more »
launch autoscroll
font size
0
reset
how to read this tab
guitar tuner
edit
Autoscroll
slow
fast
+/-
esc
set tempo
stop
[Intro]

C#|---------------------------------------------------------------------------|
G#|---------------------------------------------------------------------------|
E |---------------------------------------------------------------------------|
B |12-12-12-8-8-8-10-10-10-7-7-7-8-8-10-10------------------------------------| X2
F#|---------------------------------------------------------------------------|
B |---------------------------------------------------------------------------|

C#|---------------------------------------------------------------------------|
G#|---------------------------------------------------------------------------|
E |---------------------------------------------------------------------------|
B |5-5-5-7-7-7-3-3-3-10-10-10-12-12-12-12-4-4-4-4-4-4-4-4-4-4-4-4-4-4-4-4-----|
F#|---------------------------------------------------------------------------|
B |---------------------------------------------------------------------------|

[Verse]

C#|---------------------------------------------------------------------------|
G#|---------------------------------------------------------------------------|
E |---------------------------------------------------------------------------|
B |5-0-0-5-0-0-5-5-0-0-5-0-0-5-5-0-0-5-0--------------------------------------|
F#|5-0-0-5-0-0-5-5-0-0-5-0-0-5-5-0-0-5-0-3h5----------------------------------|
B |5-0-0-5-0-0-5-5-0-0-5-0-0-5-5-0-0-5-0--------------------------------------|

C#|---------------------------------------------------------------------------|
G#|---------------------------------------------------------------------------|
E |---------------------------------------------------------------------------|
B |4-0-0-4-0-0-4-4-0-0-4-0-0-4-4-4--------------------------------------------|
F#|4-0-0-4-0-0-4-4-0-0-4-0-0-4-4-4-5-5-3-3------------------------------------|
B |4-0-0-4-0-0-4-4-0-0-4-0-0-4-4-4--------------------------------------------|

C#|---------------------------------------------------------------------------|
G#|---------------------------------------------------------------------------|
E |---------------------------------------------------------------------------|
B |1-0-0-1-0-0-1-1-0-0-1-0-0-1-1-0-0-1-0-1-1----------------------------------|
F#|1-0-0-1-0-0-1-1-0-0-1-0-0-1-1-0-0-1-0-1-1----------------------------------|
B |1-0-0-1-0-0-1-1-0-0-1-0-0-1-1-0-0-1-0-1-1----------------------------------|

C#|---------------------------------------------------------------------------|
G#|---------------------------------------------------------------------------|
E |---------------------------------------------------------------------------|
B |3-0-0-3-0-0-3-3-0-0-4-0-0-4-4-4--------------------------------------------|
F#|3-0-0-3-0-0-3-3-0-0-4-0-0-4-4-4-3h5h3h1------------------------------------|
B |3-0-0-3-0-0-3-3-0-0-4-0-0-4-4-4--------------------------------------------|
            
C#|---------------------------------------------------------------------------|
G#|---------------------------------------------------------------------------|
E |------------------------------------------7--------------------------------|
B |5-0-0-5-0-0-5-5-0-0-5-0-0-5-5-0-0-5-0-7-8---5-7h8h7---8h7-0--8h7-----------|
F#|5-0-0-5-0-0-5-5-0-0-5-0-0-5-5-0-0-5-0-7-8----------8-------------8*--------|
B |5-0-0-5-0-0-5-5-0-0-5-0-0-5-5-0-0-5-0-7-8----------------------------------|

C#|---------------------------------------------------------------------------|
G#|---------------------------------------------------------------------------|
E |---------------------------------------------------------------------------|
B |1-0-0-1-0-0-1-1-0-0-1-0-1-1-0-0-1-0-0-1-1-3-0-0-3-0-0-3-3-0-0-3------------|
F#|1-0-0-1-0-0-1-1-0-0-1-0-1-1-0-0-1-0-0-1-1-3-0-0-3-0-0-3-3-0-0-3------------|
B |1-0-0-1-0-0-1-1-0-0-1-0-1-1-0-0-1-0-0-1-1-3-0-0-3-0-0-3-3-0-0-3------------|

C#|---------------------------------------------------------------------------|
G#|---------------------------------------------------------------------------|
E |7-7-7-7-7-7-7-7-8-8-8-8-8-8-8-8-15-15-15-15-15-15-15-15--------------------|
B |---------------------------------------------------------------------------|
F#|5-5-5-5-5-5-5-5-6-6-6-6-6-6-6-6-13-13-13-13-13-13-13-13--------------------|
B |---------------------------------------------------------------------------|

C#|---------------------------------------------------------------------------|
G#|---------------------------------------------------------------------------|
E |12-12-12-12-12-12-12-12-11-11-11-11-11-11-11-11----------------------------|
B |---------------------------------------------------------------------------|
F#|10-10-10-10-10-10-10-10-9--9--9--9--9--9--9--9-----------------------------|
B |---------------------------------------------------------------------------|

C#|---------------------------------------------------------------------------|
G#|------------------------------------13t-15t-13t----------------------------|
E |17-17-17-17-15-15-15-15-15--12t-15t-------------15t-14t--------------------|
B |---------------------------------------------------------------------------|
F#|15-15-15-15-13-13-13-13-13-------------------------------------------------|
B |---------------------------------------------------------------------------|

C#|------10-13-11-10----------------------------------------------------------|
G#|11-13-------------13-11-13\15b---------------------------------------------|
E |---------------------------------------------------------------------------|
B |---------------------------------------------------------------------------|
F#|---------------------------------------------------------------------------|
B |---------------------------------------------------------------------------|

C#|---------------------------------------------------------------------------|
G#|---------------------------------------------------------------------------|
E |---------------------------------------------------------------------------|
B |-----5-5------------5-5-7-7-8----8-8---------------------------------------|
F#|---------------------------------------------8-8-6-6-5-5-------------------|
B |5-5-5-5-5-5-5-5-5-5-----------8-8-8--8-8-8-8-------------------------------|

C#|---------------------------------------------------------------------------|
G#|---------------------------------------------------------------------------|
E |---------------------------------------------------------------------------|
B |-----1-1-----------1---------3-3-------------------------------------------|
F#|---------------------1-----------------------------------------------------|
B |1-1-1-1-1-1-1-1-1-1-1-1-3-3-3-3-3-3-4-4-4-4-4-4-4-4------------------------|

C#|---------------------------------------------------------------------------|
G#|---------------------------------------------------------------------------|
E |-------12-14-15-14-12------------------------------------------------------|
B |12--12----------------12b---15b----11bx16-10x16----------------------------|
F#|-------------------------13----12------------------------------------------|
B |---------------------------------------------------------------------------|

C#|------10-13-11-10----------------------------------------------------------|
G#|11-13-------------13-11-13\15b---------------------------------------------|
E |---------------------------------------------------------------------------|
B |---------------------------------------------------------------------------|
F#|---------------------------------------------------------------------------|
B |---------------------------------------------------------------------------|

[Chorus]

C#|---------------------------------------------------------------------------|
G#|4-4--4-4--4--4-4--4-4-6-6--6-6--6--6-6--6-6--------------------------------|
E |3-3--3-3--3--3-3--3-3-5-5--5-5--5--5-5--5-5--------------------------------|
B |1-1--1-1--1--1-1--1-1-3-3--3-3--3--3-3--3-3--------------------------------|
F#|1-1--1-1--1--1-1--1-1-3-3--3-3--3--3-3--3-3--------------------------------|
B |1-1--1-1--1--1-1--1-1-3-3--3-3--3--3-3--3-3--------------------------------|

C#|------------6h5-6h5--------------------------------------------------------|
G#|8-8--8-8--8----6---6---------------------6---------------------------------|
E |7-7--7-7--7--------------5-2-------5h7h8-----------------------------------|
B |5-5--5-5--5------------3-----5h7h8-----------------------------------------|
F#|5-5--5-5--5----------\5----------------------------------------------------|
B |5-5--5-5--5----------------------------------------------------------------|

C#|---------------------------------------------------------------------------|
G#|---------------------------------------------------------------------------|
E |---------------------------------------------------------------------------|
B |1-1--1-1--1--1-1--1-1-3-3--3-3--3--3-3--3-1-0----0----0-0-0-0-0-0-0-0-0-0--|
F#|1-1--1-1--1--1-1--1-1-3-3--3-3--3--3-3--3-1-0----0----0-0-0-0-0-0-0-0-0-0--|
B |1-1--1-1--1--1-1--1-1-3-3--3-3--3--3-3--3-1-0----0----0-0-0-0-0-0-0-0-0-0--|
        
                                     
[Breakdown]

C#|---------------------------------------------------------------------------|
G#|---------------------------------------------------------------------------|
E |---------------------------------------------------------------------------|
B |0-5-5--0-0--5-5--0-0--4-0--4-4--1-0-1-4------------------------------------| X3
F#|0-5-5--0-0--5-5--0-0--4-0--4-4--1-0-1-4------------------------------------|
B |0-5-5--0-0--5-5--0-0--4-0--4-4--1-0-1-4------------------------------------|

C#|---------------------------------------------------------------------------|
G#|---------------------------------------------------------------------------|
E |---------------------------------------------------------------------------|
B |0-1-1--0-0--1-1--0-0--4-0--4-4--7-7-7-7------------------------------------|
F#|0-1-1--0-0--1-1--0-0--4-0--4-4--7-7-7-7------------------------------------|
B |0-1-1--0-0--1-1--0-0--4-0--4-4--7-7-7-7------------------------------------|

C#|---------------------------------------------------------------------------|
G#|---------------------------------------------------------------------------|
E |---------------------------------------------------------------------------|
B |0-5-5--0-0--5-5--0-0--4-0--4-4--1-0-1-4------------------------------------| X2
F#|0-5-5--0-0--5-5--0-0--4-0--4-4--1-0-1-4------------------------------------|
B |0-5-5--0-0--5-5--0-0--4-0--4-4--1-0-1-4------------------------------------|

C#|---------------------------------------------------------------------------|
G#|---------------------------------------------------------------------------|
E |---------------------------------------------------------------------------|
B |0-5-5--0-0--5-5--0-0--4-0--4-4--1-0-1-4--3-3-3-3-3-3-3-3-3-3-3-3-3-3-3-3---| 
F#|0-5-5--0-0--5-5--0-0--4-0--4-4--1-0-1-4--3-3-3-3-3-3-3-3-3-3-3-3-3-3-3-3---|
B |0-5-5--0-0--5-5--0-0--4-0--4-4--1-0-1-4--3-3-3-3-3-3-3-3-3-3-3-3-3-3-3-3---|

[Outro]

C#|---------------------------------------------------------------------------|
G#|4~~~~~~~~6~~~~~~~~8~~~~~~~~11~~~~~~~~~~~~~~~~~~~~~~~~~~~~~~~~~~~~~~~~~~~~~~|
E |3~~~~~~~~5~~~~~~~~7~~~~~~~~10~~~~~~~~~~~~~~~~~~~~~~~~~~~~~~~~~~~~~~~~~~~~~~|
B |1~~~~~~~~3~~~~~~~~5~~~~~~~~8~~~~~~~~~~~~~~~~~~~~~~~~~~~~~~~~~~~~~~~~~~~~~~~|(Let notes ring)
F#|1~~~~~~~~3~~~~~~~~5~~~~~~~~8~~~~~~~~~~~~~~~~~~~~~~~~~~~~~~~~~~~~~~~~~~~~~~~|
B |1~~~~~~~~3~~~~~~~~5~~~~~~~~8~~~~~~~~~~~~~~~~~~~~~~~~~~~~~~~~~~~~~~~~~~~~~~~|


C#|---------------------------------------------------------------------------|
G#|---------------------------------------------------------------------------|
E |---------------------------------------------------------------------------|
B |12-12-12-8-8-8-10-10-10-7-7-7-8-8-10-10------------------------------------| X2
F#|---------------------------------------------------------------------------|
B |---------------------------------------------------------------------------|

C#|---------------------------------------------------------------------------|
G#|---------------------------------------------------------------------------|
E |---------------------------------------------------------------------------|
B |5-5-5-7-7-7-3-3-3-10-10-10-12-12-12-12-4-4-4-4-4-4-4-4-4-4-4-4-4-4-4-4-----|(Tempo changes for 4's)
F#|---------------------------------------------------------------------------|
B |---------------------------------------------------------------------------|


************************************

| x  Dead note
| h  Hammer-on
| b  Bend
| /  Slide up
| \  Slide down
| *  Pinch harmonic

************************************

            
            
Suggest correction
Creating personal tab
Creating personal tab
You can edit any tab online and save it as your Personal.

You can edit, replace or remove any tab part or add personal notes – all changes will be seen only by you.

Personal tabs can be accessed anytime from any device, even offline.
Learn more »
comments
print report bad tab
guest
You may want to rate the tab now too:
select rating
Wanna post a correction for this tab? Suggest correction