Oops, an error
Loading. Please wait.

She Makes Dirty Words Sound Pretty Tab

version 1
version 1

Whole song

71,772 views 18 this week
2 commentsread comments
1 2 3 4 5
x 9
add to favorites
launch autoscroll
font size
0
reset
how to read this tab
guitar tuner
Autoscroll
slow
fast
+/-
esc
set tempo
stop
Help us to improve Ultimate-Guitar.com Take our survey!
×
Difficulty
intermediate
----------------------------------------------------------------------------
                                             She Makes Dirty Words Sound Pretty – VIC+JOHNNY
----------------------------------------------------------------------------
Tabbed by: are you sold
Not perfect, but something along these lines.

Tuning: E Flat (Eb, Ab, Db, Gb, Bb, Eb)

Intro/Chorus
e|-0--0---0-0-0-1-1-1-1-1-0-0-xx-1--1-1-1-1-3-3-3-3-3-1-1-1-1-|
B|-1--1---1-1-1-1-1-1-1-1-1-1-xx-2--2-2-2-2-2-2-2-2-2-2-2-2-2-|
G|-2--2---2-2-2-2-2-2-2-2-2-2-xx-3--3-3-3-3-3-3-3-3-3-3-3-3-3-|
D|-3--3---3-3-3-3-3-3-3-3-3-3-xx-x--x-x-x-x-x-x-x-x-x-x-x-x-x-|
A|-x--x---x-x-x-x-x-x-x-x-x-x---------------------------------|
E|-x--x---x-x-x-x-x-x-x-x-x-x---------------------------------|


FILL (0:51)
e|--0--0--0---1--1-1h3-3-3-3-3-1-|
B|---1--1----2--2-2--2-2-2-2-2-2-|
G|----2--2--3--3-----3-3-3-3-3-3-|
D|-3-----------------x-x-x-x-x-x-|
A|-------------------------------|
E|-------------------------------|

Guitar 2 (0:56) (1:51)
e|-------------------------|
B|---5-5-56-5-5-56--686-66-|
G|-/5-5-5--5-5-5---5---5---|
D|-------------------------|
A|-------------------------|
E|-------------------------|

Verse
e|--0------------1-----------3-----------1------|
B|--1------------2-----------2-----------2------|
G|--2—(x16)------3-(x8)------3-(x5)------3—(x2)-|
D|--3-------------------------------------------|
A|----------------------------------------------|
E|----------------------------------------------|
    [------------palm mute----------------]


| /  slide up
| \  slide down
| h  hammer-on
| p  pull-off
| ~  vibrato
| +  harmonic
| x  Mute note
===============================================================================

Suggest correction
comments
print report bad tab
2 comments total.
0 reply
jiggajae1212 10 May 17, 2009 12:38 AM

i like this tab for this songggg =]
a lot easier than the others

0 reply
guitarismybff 31 Oct 18, 2011 09:43 PM

Yeah but it's also not right and sounds boring. It doesn't do the song justice.

guest
You may want to rate the tab now too:
select rating
Wanna post a correction for this tab? Suggest correction