Oops, an error
Loading. Please wait.

She Makes Dirty Words Sound Pretty Tab

version 3
version 3

Whole song

39,882 views 36 this week
6 commentsread comments
1 2 3 4 5
x 31
add to favorites
launch autoscroll
font size
0
reset
how to read this tab
guitar tuner
Autoscroll
slow
fast
+/-
esc
set tempo
stop
Help us to improve Ultimate-Guitar.com Take our survey!
×
Author
Difficulty
(The other tabs on this suck but uh here are the ACTUAL chords that are used:
(The high E string notes i put in parenthesis are there because they aren't emphasized 
the chords and are softly played.))

(Beginning half of the song)

e|-(4)-(4)-(4)-----(5)-(5)-(5)-|
B|--4---5---4-------5---7---5--|
G|--4---4---4-------5---5---5--|
D|--6---6---6-------7---7---7--|
A|--7---7---7-------0---0---0--|
E|--0---0---0-------0---0---0--|

(The "I'm such and animal" part)

e|--0---0---0---0--(5)----------|
B|--7---5---7---5---5-----------|
G|--8---6---8---6---5-(let ring)|
D|--9---7---9---7---7-----------|
A|--9---7---9---7---0-----------|
E|--0---0---0---0---0-----------|

(Rest of the Song)
e|-(4)-(4)-(4)-----(5)-(5)-(5)---(4)-|
B|--4---5---4-------5---7---5-----5--|
G|--4---4---4-------5---5---5-----4--|
D|--6---6---6-------7---7---7-----6--|
A|--7---7---7-------0---0---0-----7--|
E|--0---0---0-------0---0---0-----0--|


************************************

| (n)  Ghost note

************************************
Suggest correction
comments
print report bad tab
6 comments total. Showing first comments.
+1 reply
sobapan 10 Dec 19, 2010 05:08 PM

thanks. i knew those E and Am chord tabs sounded a little off.

+1 reply
guitarismybff 31 Oct 18, 2011 09:41 PM

Yeah, everyone else doesn't know what they're doing. This version is right. Basic chords don't really do the song justice.

-1 reply
kimmii :3 10 May 24, 2012 09:33 PM

well the E and Am chords are for the second guitar ;P (just saying)

guest
You may want to rate the tab now too:
select rating
Wanna post a correction for this tab? Suggest correction