Oops, an error
Loading. Please wait.

She Sings In The Morning Tab

version 3
version 3

Intro

5,376 views 12 this week
1 commentread comment
1 2 3 4 5
excellent!
x 8
add to favorites
launch autoscroll
font size
0
reset
how to read this tab
guitar tuner
Tab Pro tools
  • play this tab
  • loop segment
  • change instrument
  • show fretboard
  • metronome
×
Best way to learn
"She Sings In The Morning"
Autoscroll
slow
fast
+/-
esc
set tempo
stop
Difficulty
Tuning
intermediate
D A D G B E
Pierce The Veil
She sings in the morning

Tabbed by: Hector
email: hetorthedoor@hotmail.com

Tuning: Drop D

Intro

e|--------------------------------------------------------------------|
B|--------------------------------------------------------------------|
G|-------2-----2-4-------2-----2-4-------2-----2-4----2--2---2--2-----|
D|---4---4---4-4-4---0---0---0-0-0---3---3---3-3-3----3--3---3--3-----|
A|--------------------------------------------------------------------|
D|--------------------------------------------------------------------|
P.M          .               .               .

e|--------------------------------------------------------------------|
B|--------------------------------------------------------------------|
G|-------2-----2-4-------2-----2-4-------2-----2-4------2-2-2-2-------|
D|---4---4---4-4-4---0---0---0-0-0---3---3---3-3-3------3-3-3-3-------|
A|--------------------------------------------------------------------|
D|--------------------------------------------------------------------|
P.M          .               .               .


e|-------------|
B|-------------|
G|-------------|
D|---3-3-3-3---|
A|-------------|
D|-------------|

Then...

  Guitar 1
e|-----------------------------------------------------------------|
B|-----------------------------------------------------------------|
G|-----------------------------------------------------------------|
D|---4--99997777666677776666-------9----99997777666677776666-------|
A|---4----------------------888888-9--------------------------8*---|
D|---4-----------------------------9-------------------------------|

  Guitar 2
e|-----------------------------------------------------------------|
B|-----------------------------------------------------------------|
G|-----------------------------------------------------------------|
D|---4-----------------------------9--9-9-9-9-9-9-9-9-9-9-9-9-9----|
A|---4-----------------------------9--9-9-9-9-9-9-9-9-9-9-9-9-9----|
D|---4-----------------------------9--9-9-9-9-9-9-9-9-9-9-9-9-9----|

  Guitar 1
e|--------------------------------------------------------------------------|
B|------------------------------------------------------------------10p7~---|
G|------------------------------------------------------9h10---9h10---------|
D|---4--99997777666677776666-------9----9999777766667-777----777------------|
A|---4----------------------888888-9----------------------------------------|
D|---4-----------------------------9----------------------------------------|
P.M                                                   ..     .. 

  Guitar 2
e|------------------------------------------------------------------|
B|------------------------------------------------------------------|
G|------------------------------------------------------------------|
D|---4-----------------------------9--9-9-9-9-9-9-9-9-999-999-9-9---|
A|---4-----------------------------9--9-9-9-9-9-9-9-9-999-999-9-9---|
D|---4-----------------------------9--9-9-9-9-9-9-9-9-999-999-9-9---|
P.M                                                   ..  ..

e|---------|
B|---------|
G|---------|
D|---4~/---|
A|---4~/---|
D|---4~/---|


 Clean
e|-------------------------------------------------------------------|
B|----2-----2-----2---2-----2-----2---2-----2-----2---2-----2-----2--|
G|------2-----2---------2-----2---------2-----2---------2-----2------|
D|--4-----4-----4---0-----0-----0---3-----3-----3---3-----3-----3----|
A|-------------------------------------------------------------------|
D|-------------------------------------------------------------------|


 Verse
e|--------------------------------------------------------------|
B|--2----2---2~----2----2---2~----2----2---2~----2----2---2~----|
G|--2----2---2~----2----2---2~----2----2---2~----2----2---2~----|
D|--4-4444---4~----0-0000---0~----3-3333---3~----3-3333---3~----|
A|--------------------------------------------------------------|
D|--------------------------------------------------------------|
P.M   ...            ...            ...            ...


This could be the chords for the chorus

 Chorus
e|------------------------------------|
B|------------------------------------|
G|------------------------------------|
D|--4--------7--------0--------3------|
A|--4-x16----7-x16----0-x16----3-x16--|
D|--4--------7--------0--------3------|


That`s all I have...
This is my first tab, please rate it!
comments
print report bad tab
1 comment total.
+1 reply
killjoydude wrote on June 8 2014, 09:21 pm

Awesome. u basically got the whole song

I want to post or [tab]
guest
You may want to rate the tab now too:
select rating
Please do not post tabs as comments. Select "correction" instead!