Oops, an error
Loading. Please wait.

Southern Constellations tab

version 5
version 5

Whole song

34 views 3 this week
no commentswrite comment
1 2 3 4 5
1 last vote to show rating
add to favorites
×
Save as Personal and add changes to this tab that will be seen only by you. Learn more ›
×
You can save this tab as Personal to edit and correct it or add notes. All changes will be seen only by you. Learn more »
launch autoscroll
font size
0
reset
how to read this tab
guitar tuner
edit
Autoscroll
slow
fast
+/-
esc
set tempo
stop
About this tab version
Lyrics placed alongside for timing. Was this info helpful? Yes No
[Intro]
   E5                 D5                 C5                                               
e|------------------|------------------|------------------|------------------|
B|------------------|------------------|------------------|------------------|
G|-9~---------------|-7~---------------|------------------|------------------|
D|-9~---------------|-7~------9--------|-10~--------------|-------------7/9--|
A|-7~---------------|-5~----------9----|-10~--------------|-----7---10-------|
E|------------------|------------------|-8~---------------|------------------|
   Please  keep       cha  -  sing       me                         Your                           
   E5                 D5                 C5                                       
e|------------------|------------------|------------------|------------------|
B|------------------|------------------|------------------|------------------|
G|-9~---------------|-7~---------------|------------------|------------------|
D|-9~----------9----|-7~------9--------|-10~--------------|-----7h9p7--------|
A|-7~------7--------|-5~----------9----|-10~--------------|-------------7----|
E|------------------|------------------|-8~---------------|------------------|
  southern constel  - lations got me     so      di         zzy         It's                                
   E5                 D5                 C5                                      
e|------------------|------------------|------------------|------------------|
B|------------------|------------------|------------------|------------------|
G|-9~---------------|-7~---------------|------------------|------------------|
D|-9~------9b10r9---|-7~------9--------|-10~--------------|-------------7/9--|
A|-7~---------------|-5~----------9----|-10~--------------|-----7---10-------|
E|------------------|------------------|-8~---------------|------------------|
  cold but you pre  tend that you are    warm    with me        Be fore I                                   
   E5                 D5                 C5                                       
e|------------------|------------------|------------------|------------------|
B|------------------|------------------|------------------|------------------|
G|-9~---------------|-7~---------------|------------------|------------------|
D|-9~----------9----|-7~------9--------|-10~--------------|-------------7/9--|
A|-7~------7--------|-5~----------9----|-10~--------------|-----7---10-------|
E|------------------|------------------|-8~---------------|------------------|
   get     you     home you're nearly    fro     zen                    but                                  
   E5                 D5                 C5                 B5                  
e|------------------|------------------|------------------|------------------|
B|------------------|------------------|------------------|------------------|
G|-9~---------------|-7~---------------|------------------|------------------|
D|-9~---------------|-7~---------------|-10~--------------|-9~---------------|
A|-7~---------------|-5~---------------|-10~--------------|-9~---------------|
E|------------------|------------------|-8~---------------|-7~---------------|
   I'll    ne  ver    let     you        freeze  with   -   out                 
   E5                 E6                        E5                 G5       F#5        
e|------------------|-------------------------|------------------|------------------|
B|-m-m-m-m-m-m-m-m--|-m--m--m--m--m--m--m--m--|------------------|------------------|
G|-9-9-9-9-9-9-9-9--|-9--9--9--9--9--9--9--9--|------------------|------------------|
D|-9-9-9-9-9-9-9-9--|-10-10-10-10-10-10-10-10-|-2~---------------|-5--5-5---4-------|
A|-7-7-7-7-7-7-7-7--|-7--7--7--7--7--7--7--7--|-2~---------------|-5--5-5---4-------|
E|-0-0-0-0-0-0-0-0--|-0--0--0--0--0--0--0--0--|-0~---------------|-3--3-3---2-------|
   me!                            Oh            no!                FREEZE!                                   

| /  Slide
| h  Hammer-on
| p  Pull-off
| ~  Vibrato
| x  Mute
| b  Bend
| r  Release
| m  Palm mute

            
            
Suggest correction
Creating personal tab
Creating personal tab
You can edit any tab online and save it as your Personal.

You can edit, replace or remove any tab part or add personal notes – all changes will be seen only by you.

Personal tabs can be accessed anytime from any device, even offline.
Learn more »
Give kudos to tab author, rate the tab!
1 2 3 4 5
comments
print report bad tab
guest
You may want to rate the tab now too:
select rating
Wanna post a correction for this tab? Suggest correction