Oops, an error
Loading. Please wait.

Stay Away From My Friends Bass Tab

70 views 1 this week
no commentswrite comment
1 2 3 4 5
3 more votes to show rating
add to favorites
launch autoscroll
font size
0
reset
guitar tuner
Autoscroll
slow
fast
+/-
esc
set tempo
stop
Help us to improve Ultimate-Guitar.com Take our survey!
×
Author
Difficulty
novice
About this tab version
Not sure it it's 100% correct but it sounds good. Was this info helpful? Yes No
No bass for 12 mesures


[Pre-Chorus] 

(Lousiana, you're ..)
  W                W                W                W
G|----------------|----------------|----------------|----------------|
D|0---------------|+---------------|----------------|----------------|
A|----------------|----------------|----------------|----------------|
E|----------------|----------------|2---------------|+---------------|

  W                W                W                W
G|----------------|----------------|----------------|----------------|
D|0---------------|+---------------|----------------|----------------|
A|----------------|----------------|0---------------|4---------------|
E|----------------|----------------|----------------|----------------|


(no bass for 12 mesures)


[Verse 2] 

(I don't know ...)
  S SS             S SS    Q   Q    S SS             S SS    Q   Q   
G|----------------|----------------|----------------|----------------|
D|----------------|----------------|----------------|--------4---2---|
A|0-00------------|0-00----0-------|----------------|----------------|
E|----------------|------------4---|2-22------------|2-22------------|

  S SS             S SS        Q    S SS             S SS
G|----------------|----------------|----------------|----------------|
D|0-00------------|0-00------------|----------------|----------------|
A|----------------|----------------|0-00------------|0-00------------|
E|----------------|------------4---|----------------|----------------|

(No bass for 4 mesures)


[Chorus] 

(Baby, stay away ...)
  S SS        Q    S SS        Q    S SS             S SS        Q    
G|----------------|----------------|----------------|----------------|
D|4-44--------2---|0-00------------|----------------|------------3---|
A|----------------|------------4---|2-22------------|4-44------------|
E|----------------|----------------|----------------|----------------|

  S SS        Q    S SS        Q    E   Q   S Q.     Q   E E E E E E  E
G|----------------|----------------|----------------|----------------|----------------|
D|4-44--------2---|0-00------------|----------------|--------2-2-2-2-|2---------------|
A|----------------|------------4---|2---2---+-2-----|4---4-4---------|----------------|
E|----------------|----------------|----------------|----------------|----------------|


[Interlude]

  S SS      SSQ    S SS      SSQ    S SS      SSQ    S SS      SSQ    
G|----------------|----------------|7----------7+---|7----------7+---|
D|4----------4+---|4----------4+---|----------------|----------------|
A|----------------|----------------|--55------5-----|--55------5-----|
E|--22------2-----|--22------2-----|----------------|----------------|

  S SS      SSQ    S SS      SSQ    S SS      SSQ    E  
G|----------------|----------------|7----------7+---|----------------|
D|4----------4+---|4----------4+---|----------------|----------------|
A|----------------|----------------|--55------5-----|5---------------|
E|--22------2-----|--22------2-----|----------------|----------------|


[Bridge] (x2)

  S SS             S SS    Q   Q    S SS             S SS    Q   Q   
G|----------------|----------------|----------------|----------------|
D|----------------|----------------|0-00------------|0-00----0-------|
A|0-00------------|0-00----0---4---|----------------|------------3---|
E|----------------|----------------|----------------|----------------|

  S SS             S SS    Q   Q    Q   Q   Q   Q    Q   Q   Q   Q   
G|----------------|----------------|----------------|----------------|
D|----------------|----------------|0---2---3---5---|0---2---3---5---|
A|0-00------------|0-00----0---4---|----------------|----------------|
E|----------------|----------------|----------------|----------------|

(No bass in Outro)
Suggest correction
Give kudos to tab author, rate the tab!
1 2 3 4 5
comments
print report bad tab
guest
You may want to rate the tab now too:
select rating
Wanna post a correction for this tab? Suggest correction