Oops, an error
Loading. Please wait.

Texas Is Forever tab

version 1
version 1

Whole song

Interactive

7,612 views 18 this week
1 commentread comment
1 2 3 4 5
x 9
add to favorites
×
Save as Personal and add changes to this tab that will be seen only by you. Learn more ›
×
You can save this tab as Personal to edit and correct it or add notes. All changes will be seen only by you. Learn more »
launch autoscroll
font size
0
reset
how to read this tab
guitar tuner
edit
Autoscroll
slow
fast
+/-
esc
set tempo
stop
This isn't perfect, but it's a start

INTRO
D# ------------------------------------------------------------------------------------------------------
A# ------------------------------------------------------------------------------------------------------
F# -------12-----14----10-----15----12----14----10------------------------------------------------------
C# ---00------0------0------0-----0-----0-----0--------x3-----------------------------------------------
G# ------------------------------------------------------------------------------------------------------
C# ------------------------------------------------------------------------------------------------------
PM   --       -      -      -     -    -       -    

      |-------1st ending ---------|       |--------------------------2nd ending-------------------|
D# ------------------------------------------------------------------------------------------------------
A# ------------------------------------------------------------------------------------------------------
F# ----3-------5-----1/9--10~-----------------10----------10------10-----------9-------9------9----------
C# ----3-------5-----------------------12-12------12-12------12----------10-10---10-10---10--------------
G# ----1-------3-----------------------------------------------------------------------------------------
C# ------------------------------------------------------------------------------------------------------
PM                                     -  -       -   -       -           -  -   -  -     -    

VERSE 1 PART 1
D# ------------------------------------------------------------------------------------------------------
A# ------------------------------------------------------------------------------------------------------
F# -------------------------------------------------------7-----------5----------------------------------
C# -------------------------------------------------------x-----------x----------------------------------
G# -------------------------------------------------------5-----------3----------------------------------
C# ----0-0--0-0----0000-----2-2--2--2----2222------------------------------------------------------------


D# ------------------------------------------------------------------------------------------------------
A# ------------------------------------------------------------------------------------------------------
F# -----------------------------------------------------12----------10----9------------------------------
C# -----------------------------------------------------x------------x----x------------------------------
G# -----------------------------------------------------10-----------8----7------------------------------
C# ----0-0--0-0--0000----3-3---3--3--3333----------------------------------------------------------------


VERSE 1 PART 2
D# ------------------------------------------------------------------------------------------------------
A# ---------------------------8-----8---8-------------5~-------------------------------------------------
F# ----10------17-------3-----x-----x---x-----------------6~-------------7/9~----------------------------
C# ----x--------x-------3-----x-----x---x-----------8-----------------5----------------------------------
G# ----8-------15-------1-----5-----5---5--------9-----------------7-------------------------------------
C# -----------------------------------------------------------------------------/7~----------------------
PM                                               -  -              -  - 

D# ------------------------------------------------------------------------------------------------------
A# ------------------------------------------------------------------------------------------------------
F# ------------------------------------------------------------------------------------------------------
C# ------------------------------------------------------------------------------------------------------
G# -----/13~--12----10--12--10/8--10--8--0--7------------------------------------------------------------
C# ------------------------------------------------------------------------------------------------------

PRECHORUS                                                            
D# ------------------------------------------------------------------------------------------------------
A# ------------------------------------------------------------------------------------------------------
F# ------------------------------------------------------------------------------------------------------
C# ------------------------------------------------------------------10--8--7----------------------------
G# ---7--8--7--8--10-------7--8--7--8--7--8--10---x6-----------------------------------------------------
C# ------------------------------------------------------------------------------------------------------
                             Repeat only this part 
                                                                    * 
D# --------------------------------------------------------------------------12------x-12------x-12------
A# ---------------------------------------------------------------------------8------x-8-------x-8-------
F# ------------------------------------------------------------------------------------------------------
C# -----------------------------------------------------------------/10~---------------------------------
G# -----7--8--7--8--7--8--10--7--8--7--8--7--8--10-------------------------------------------------------
C# ------------------------------------------------------------------------------------------------------

CHORUS
D# ------------------------------------------------------------------------------------------------------
A# ------------------------------------------------------------------------------------------------------
F# ------------------------------------------------------------------------------------------------------
C# ------------------------------------------------------------------------------------------------------
G# ------------------------------------------------------------------------------------------------------
C# -----0---0--0-0----2---2---2-2----8--8---8-8---7---7---7-7--------------------------------------------

D# ------------------------------------------------------------------------------------------------------
A# ------------------------------------------------------------------------------------------------------
F# ------------------------------------------------------------------------------------------------------
C# ------------------------------------------------------------------------------------------------------
G# ------------------------------------------------------------------------------------------------------
C# ----0--0--0-0----3--3--3-3----10--10---10-10----9---9---9-9-------------------------------------------
Repeat 1st measure then

D# ------------------------------------------------------------------------------------------------------
A# ------------------------------------------------------------------------------------------------------
F# ----------7~------------------------5~-------------------3~-------------------------------------------
C# ----------7~------------------------5~-------------------3~-------------------------------------------
G# ----------5~------------------------3~-------------------1~-------------------------------------------
C# -----------------------------------------------------------------------PICKSLIDE----------------------

Repeat intro but end with 
D# ------------------------------------------------------------------------------------------------------
A# ------------------------------------------------------------------------------------------------------
F# ------------------------------------------------------------------------------------------------------
C# ----------------8~-------------------------------10~--------------------------------------------------
G# -------------8~----8~------------------------10~-----10~----------------------------------------------
C# ------8-8-------------------------10--10--------------------------------------------------------------
PM       - -                         -   -   

VERSE 2 PART 1
D# ------------------------------------------------------------------------------------------------------
A# ------------------------------------------------------------------------------------------------------
F# -----------------------------------------------------12---------14-----15-----------------------------
C# ----8~-------5~------8~------10~--------3-------------x----------x------x--------5--7--8--------------
G# ----7~-------6~------9~------11~--------3------------10---------12-----13-----------------------------
C# ----------------------------------------3-------------------------------------------------------------

VERSE 2 PART 2
D# ------------------------------------------------------------------------------------------------------
A# ------------------------------------------------------------------------------------------------------
F# ---------------------------------------------------14---12----10-----9-----7--------------------------
C# --------------------------------------/5---8-------x-----x-----x-----x-----x--------------------------
G# ----/5---------/7--8---7h8p7-----------------------12---10-----8-----7-----5--------------------------
C# ---------7b---------------------10--------------------------------------------------------------------

Repeat prechorus but play this at the *
D# ------------------------------------------------------------------------------------------------------
A# ------------------------------------------------------------------------------------------------------
F# ------------------------------------------------------------------------------------------------------
C# -------10----------------------------------------14---------------------------------------------------
G# -------10----------------------------------------10---------------------------------------------------
C# -------10----------------------------------------10---------------------------------------------------
Play chorus then

BRIDGE
D# ------------------------------------------------------------------------------------------------------
A# ------------------------------------------------------------------------------------------------------
F# ---------------------7/9~-------------------12~--------9~---------------------------------------------
C# -----0~--------5/7---------10~-------10~---------10~------------x3------------------------------------
G# -----0~------------------------11~--------------------------------------------------------------------
C# -----0~-----------------------------------------------------------------------------------------------

D# ------------------------------------------------------------------------------------------------------
A# ------------------------------------------------------------------------------------------------------
F# ----------------10--------------------10--------------7/9~------------------12~--------9~-------------
C# -------0-0------12------0-----0-------12-------5/7----------10~--------10~--------10~-----------------
G# -------0-0------11------0-----0-------11--------------------------11~---------------------------------
C#  ------0-0--------------0-----0-----------------------------------------------------------------------
PM        - -              -     -     

D# ------------------------------------------------------------------------------------------------------
A# ------------------------------------------------------------------------------------------------------
F# -------------------------10-------------7/9~----------------12~-------9~------------------------------
C# ------0-----0-0----0-0---12-------5/7--------10~-------10~-------10~-------x3-------------------------
G# ------0-----0-0----0-0---11-----------------------11~-------------------------------------------------
C#  -----0-----0-0----0-0--------------------------------------------------------------------------------
PM       -     - -    - -        

D# ------------------------------------------------------------------------------------------------------
A# ------------------------------------------------------------------------------------------------------
F# -------------------------------7/9~-----------------12~-------9~--------------------------------------
C# -------0---0---0---0------5/7--------10~------10~-------10~-------------------------------------------
G# -------0---0---0---0---------------------11~----------------------------------------------------------
C#  ------0---0---0---0----------------------------------------------------------------------------------

D# ------------------------------------------------------------------------------------------------------
A# ----/8--8--10--13--11--10--8--10b---------------------------------------------------------------------
F# ------------------------------------------------------------------------------------------------------
C# -------------------------------------9b---10b-------5b-------9b---10b---------5b----------------------
G# ------------------------------------------------------------------------------------------------------
C#  -----------------------------------------------------------------------------------------------------

D# ------------------------------------------------------------------------------------------------------
A# ------9-----------------------------12----------------------------------------------------------------
F# ------7-----------------------------10----------------------------------------------------------------
C# ------------------------------------------------------------------------------------------------------
G# ------------------------------------------------------------------------------------------------------
C#  -----------------------------------------------------------------------------------------------------
Play chorus 3 times, firs two times normally, then full chords, then end on

D# ------------------------------------------------------------------------------------------------------
A# ------------------------------------------------------------------------------------------------------
F# ------------------------------------------------------------------------------------------------------
C# ------------------------------------------------------------------------------------------------------
G# ------------------------------------------------------------------------------------------------------
C#  ------0-----2-------8-------0----3---10----9-----0---------------------------------------------------

            
            
Suggest correction
Creating personal tab
Creating personal tab
You can edit any tab online and save it as your Personal.

You can edit, replace or remove any tab part or add personal notes – all changes will be seen only by you.

Personal tabs can be accessed anytime from any device, even offline.
Learn more »
comments
print report bad tab
1 comment total.
+4 reply
poseidon8167 125 Aug 01, 2016 04:22 PM

A lot of key parts are off. A lot of it doesn't even make sense as to how he got that from the actual song.

guest
You may want to rate the tab now too:
select rating
Wanna post a correction for this tab? Suggest correction