Oops, an error
Loading. Please wait.

Texas Is Forever tab

version 2
version 2

Whole song

Interactive

3,151 views 9 this week
2 commentsread comments
1 2 3 4 5
x 4
add to favorites
×
Save as Personal and add changes to this tab that will be seen only by you. Learn more ›
×
You can save this tab as Personal to edit and correct it or add notes. All changes will be seen only by you. Learn more »
launch autoscroll
font size
0
reset
how to read this tab
guitar tuner
edit
Autoscroll
slow
fast
+/-
esc
set tempo
stop
Hey guys, this is my first tab on ultimate guitar and I hope you find it useful!

Key:
* - Palm mute
/ - slide
@ - pinch harmonic
^ - bend
~ - vibrato
p - pull-ff
h- hammer on
Tuning:
C# G# C# F# A# D#

[Intro] Lead Guitar
    * *   *    *    *  *  *  *  *
1|---------------------------------------------------------------------------|
2|---------------------------------------------------------------------------|
3|------12---14---10-15-12-14-10---------------------------------------------|
4|--0-0---0----0----0--0--0--0--0--------------------------------------------|
5|---------------------------------------------------------------------------|
6|---------------------------------------------------------------------------| x3

                               @
1|---------------------------------------------------------------------------|
2|---------------------------------------------------------------------------|
3|--3-3-3-3-3-3-3-3-5-------9-10---------------------------------------------|
4|--3-3-3-3-3-3-3-3-5---/10--------------------------------------------------|
5|--1-1-1-1-1-1-1-1-3--------------------------------------------------------|
6|---------------------------------------------------------------------------|

    * *   *    *    *  *  *  *  *
1|---------------------------------------------------------------------------|
2|---------------------------------------------------------------------------|
3|------12---14---10-15-12-14-10---------------------------------------------|
4|--0-0---0----0----0--0--0--0--0--------------------------------------------|
5|---------------------------------------------------------------------------|
6|---------------------------------------------------------------------------| x3

    * *    * *    *    *  *    *  *    *
1|---------------------------------------------------------------------------|
2|---------------------------------------------------------------------------|
3|------10-----10---10-------9-------9----9----------------------------------|
4|--8-8----8-8----8----10-10---10-10---10------------------------------------|
5|---------------------------------------------------------------------------|
6|---------------------------------------------------------------------------|

[Verse]

0:21 - 0:25 (Listen to the song to get the rhythm down)
1|---------------------------------------------------------------------------|
2|---------------------------------------------------------------------------|
3|-------------------------7-7-7-7-7-7-7-7-5-5-5-5-5-5-5-5-------------------|
4|-------------------------7-7-7-7-7-7-7-7-5-5-5-5-5-5-5-5-------------------|
5|-------------------------5-5-5-5-5-5-5-5-3-3-3-3-3-3-3-3-------------------|
6|-0-000--0-00-3-333-3-33----------------------------------------------------|

0:25 - 0:30 
1|---------------------------------------------------------------------------|
2|---------------------------------------------------------------------------|
3|-------------------------12-12-12-12-12-12-12-12-10-10-10-9-9-9-9----------|
4|---------------------------------------------------------------------------|
5|-------------------------10-10-10-10-10-10-10-10-8-8-8-8--7-7-7-7----------|
6|-0-000--0-00-3-333-3-33----------------------------------------------------|
                 
1|---------------------------------------------------------------------------|
2|---------------------------------------------------------------------------|
3|-10-10-10-10-10-10-10-10-14-14-14-14-14-14-14-14---------------------------|
4|---------------------------------------------------------------------------|
5|--8--8--8--8--8--8--8--8-12-12-12-12-12-12-12-12---------------------------|
6|---------------------------------------------------------------------------|

0:30-0:36                                 
                                                    ~
1|-------------------8--8--8---|----------------------------------------------|
2|-------------------5--5--5---|------6---------------------------------------|
3|-3-3-3-3-3-3-3-3---5--5--5---|--------5------7/9----------------------------|
4|-3-3-3-3-3-3-3-3-------------|----7--------5--------------------------------|
5|-1-1-1-1-1-1-1-1-------------|--8--------7----------------------------------|
6|-----------------------------|--------------------8-------------------------|

0:36-0:50

1|-----------------------|----------------------------------------------------|
2|-----------------------|----------------------------------------------------|
3|-----------------------|----------------------------------------------------|
4|-----------------------|----------------------------------------------------|
5|-/13-12-10-8-12-10-8-7-|-7-8-7-8-10-8-7-8-7-8-7-8-10-8-7-8------------------|
6|-----------------------|----------------------------------------------------|x3

1|-----------------------------------|----------------------------------------|
2|-----------------------------------|----------------------------------------|
3|-----------------------------------|----------------------------------------|
4|--------------------------10-8-7---|----------------------------------------|
5|-7-8-7-8-10-8-7-8-7-8-7-8--------8-|-7-8-7-8-10-8-7-8-7-8-7-8-10-8-7-8------|
6|-----------------------------------|----------------------------------------|

1|--------12-x-12-x-12----------------------------------------------------------|
2|---------8-x--8-x--8----------------------------------------------------------|
3|---------8-x--8-x--8----------------------------------------------------------|
4|--/10-----------------------------------------------------------------------|
5|----------------------------------------------------------------------------|
6|----------------------------------------------------------------------------|


[Chorus](Listen to the song for the rhythm)
                                                (10's not 1's and 0's)
1|-----------------------------------|----------------------------------------|
2|-----------------------------------|----------------------------------------|
3|-----------------------------------|----------------------------------------|
4|-----------------------------------|----------------------------------------|
5|-----------------------------------|----------------------------------------|
6|-0-00-00-3-3-3-3-3-8-88-88-8-8-7-7-|-0-00-00-3-3-3-3-10-1010-1010-10-9-9-9--|

1|-----------------------------------|------------------Pick Slide------------|
2|-----------------------------------|------------------Pick Slide------------|
3|-----------------------------------|-7----5----3------Pick Slide------------|
4|-----------------------------------|-7----5----3------Pick Slide------------|
5|-----------------------------------|-5----3----1------Pick Slide------------|
6|-0-00-00-3-3-3-3-3-8-88-88-8-8-7-7-|------------------Pick Slide------------|

[Verse]

1:06 -  1:15
    * *   *    *    *  *  *  *  *
1|---------------------------------------------------------------------------|
2|---------------------------------------------------------------------------|
3|------12---14---10-15-12-14-10---------------------------------------------|
4|--0-0---0----0----0--0--0--0--0--------------------------------------------|
5|---------------------------------------------------------------------------|
6|---------------------------------------------------------------------------| x3

   *           *
1|---------------------------------------------------------------------------|
2|---------------------------------------------------------------------------|
3|---------------------------------------------------------------------------|
4|-------8------------10-----------------------------------------------------|
5|-----8---8------10-----10--------------------------------------------------|
6|-0-8-------8-10------------------------------------------------------------|

1:16 - 1:23  
                            play the chord 16 times
1|--------------------------|---------------------|------------------------------------|
2|--------------------------|---------------------|------------------------------------|
3|--------------------------|---------------------|-12-12-12-12-14-14-14-14-15-15-15-15|
4|--7----------5-----8--10--|-3-3-3-3-3-3-3-3-----|------------------------------------|
5|--8----------7----10--12--|-3-3-3-3-3-3-3-3-----|-10-10-10-10-12-12-12-12-13-13-13-13|
6|--------------------------|-3-3-3-3-3-3-3-3-x2--|------------------------------------|

(Listen to the song for the rhythm) 1:23-1:32

1|---------------------------------------|-----------------------------------------------------------|
2|---------------------------------------|-----------------------------------------------------------|
3|---------------------------------------|-14-14-14-14-12-12-12-12-10-10-10-10-9-9-9-9-7-7-7-7-------|
4|--5-7-8--------------------------5---8-|-----------------------------------------------------------|
5|--------5-----7--8---7-8-7-------------|-12-12-12-12-10-10-10-10--8--8--8--8-7-7-7-7-5-5-5-5-------|
6|----------8----------------10--8-------|-----------------------------------------------------------|




1:32-1:45

1|-----------------------|----------------------------------------------------|
2|-----------------------|----------------------------------------------------|
3|-----------------------|----------------------------------------------------|
4|-----------------------|----------------------------------------------------|
5|-Pick Slide------------|-7-8-7-8-10-8-7-8-7-8-7-8-10-8-7-8------------------|
6|-----------------------|----------------------------------------------------|x3

1|-----------------------------------|----------------------------------------|
2|-----------------------------------|----------------------------------------|
3|-----------------------------------|----------------------------------------|
4|--------------------------10-8-7---|----------------------------------------|
5|-7-8-7-8-10-8-7-8-7-8-7-8--------8-|-7-8-7-8-10-8-7-8-7-8-7-8-10-8-7-8------|
6|-----------------------------------|----------------------------------------|

("I'm such a sucker for the rain..") 

1|---------------------------------------------------------------------------|
2|---------------------------------------------------------------------------|
3|---------------------------------------------------------------------------|
4|-15-15-15-15-15-15-15-15-14-14-14-14-14-14-14-14---------------------------|
5|---------------------------------------------------------------------------|
6|-10-10-10-10-10-10-10-10-10-10-10-10-10-10-10-10---------------------------|


[Chorus](Listen to the song for the rhythm)
                                                (10's not 1's and 0's)
1|-----------------------------------|----------------------------------------|
2|-----------------------------------|----------------------------------------|
3|-----------------------------------|----------------------------------------|
4|-----------------------------------|----------------------------------------|
5|-----------------------------------|----------------------------------------|
6|-0-00-00-3-3-3-3-3-8-88-88-8-8-7-7-|-0-00-00-3-3-3-3-10-1010-1010-10-9-9-9--|

1|-----------------------------------|------------------Pick Slide------------|
2|-----------------------------------|------------------Pick Slide------------|
3|-----------------------------------|-7----5----3------Pick Slide------------|
4|-----------------------------------|-7----5----3------Pick Slide------------|
5|-----------------------------------|-5----3----1------Pick Slide------------|
6|-0-00-00-3-3-3-3-3-8-88-88-8-8-7-7-|------------------Pick Slide------------|

[Break Down]

(Listen to the song for the rhythm) 2:06 - 2:22

1|---------------------------------------------------------------------------|
2|---------------------------------------------------------------------------|
3|-------------------------9----------12----9--------------------------------|
4|-0------------------5/7----10----10----10----------------------------------|
5|-0---------------3/5----------12-------------------------------------------|
6|-0-------------------------------------------------------------------------|x4

2:23 - 2:27
   *    * *    *
1|---------------------------------------------------------------------------|
2|---------------------------------------------------------------------------|
3|----8------8------------9-----------12----9--------------------------------|
4|---12-----12--------5/7----10----10----10----------------------------------|
5|-----------------3/5----------12-------------------------------------------|
6|-00---0-0----0-------------------------------------------------------------|

2:27 - 2:44

1|---------------------------------------------------------------------------|
2|---------------------------------------------------------------------------|
3|---------------------9-----------12-----9----------------------------------|
4|----------------5/7-----10----10----10-------------------------------------|
5|-------------3/5-----------12----------------------------------------------|
6|-0-00-00-0-----------------------------------------------------------------| x4

[Solo]

2:45 - 2:56

1|-------------------------------|--------------------------------------------|
2|------8-10-13-11-10h11p108-10--|--------------------------------------------|
3|--/10----------------------12^-|--9-9-9-10-10-10-5-5-9-9-9-10-10-10-5-5-----|
4|-------------------------------|--------------------------------------------|
5|-------------------------------|--------------------------------------------|
6|-------------------------------|--------------------------------------------|
 
             (mixture of sweep and economy picking)(Listen to the song for the rhythm)

1|------------|---------5h8p5----13h10p13-10-8----17-15-17-15-----------------|
2|------------|-------6-------6----------------10-----------------------------|
3|--8---10----|-----7---------------------------------------------------------|
4|-10^--12^---|---------------------------------------------------------------|
5|------------|---------------------------------------------------------------|
6|------------|---------------------------------------------------------------|


[Outro]


(Listen to the song for the rhythm)2:57 - 3:39
                                                (10's not 1's and 0's)
1|-----------------------------------|----------------------------------------|
2|-----------------------------------|----------------------------------------|
3|-----------------------------------|----------------------------------------|
4|-----------------------------------|----------------------------------------|
5|-----------------------------------|----------------------------------------|
6|-0-00-00-3-3-3-3-3-8-88-88-8-8-7-7-|-0-00-00-3-3-3-3-10-1010-1010-10-9-9-9--|

1|-----------------------------------|
2|-----------------------------------|
3|-----------------------------------|
4|-3---------------------------------|
5|-3---------------------------------|
6|-3-3-3-3-3-8-88-88-8-8-7-7-|-------|  
 
                                                (10's not 1's and 0's)
1|---------------------------------------------------------------------------|
2|---------------------------------------------------------------------------|
3|---------------------------------------------------------------------------|
4|---------------------------------------------------------------------------|
5|---------------------------------------------------------------------------|
6|--0-00-00-3-3-3-3-10-1010-1010-10-9-9-9------------------------------------|



1|---------------------------------------------------------------------------|
2|---------------------------------------------------------------------------|
3|---------------------------------------------------------------------------|
4|--0--00-00-3-3-3-3-8-8-8-8-8-8-7-7-----------------------------------------|
5|--0--00-00-3-3-3-3-8-8-8-8-8-8-7-7-----------------------------------------|
6|--0--00-00-3-3-3-3-8-8-8-8-8-8-7-7-----------------------------------------|

1|---------------------------------------------------------------------------|
2|---------------------------------------------------------------------------|
3|---------------------------------------------------------------------------|
4|--0--00-00-3-3-3-3-10-10-10-10-10-9-9-9------------------------------------|
5|--0--00-00-3-3-3-3-10-10-10-10-10-9-9-9------------------------------------|
6|--0--00-00-3-3-3-3-10-10-10-10-10-9-9-9------------------------------------|

1|---------------------------------------------------------------------------|
2|---------------------------------------------------------------------------|
3|---------------------------------------------------------------------------|
4|--0-0-0-0-0-0-3-3-3-3-8-8-8-8-8-8-8-8--------------------------------------|
5|--0-0-0-0-0-0-3-3-3-3-8-8-8-8-8-8-8-8--------------------------------------|
6|--0-0-0-0-0-0-3-3-3-3-8-8-8-8-8-8-8-8--------------------------------------|

1|---------------------------------------------------------------------------|
2|---------------------------------------------------------------------------|
3|---------------------------------------------------------------------------|
4|--0--00-00-3-3-3-3-10-10-10-10-10-9-9-9------------------------------------|
5|--0--00-00-3-3-3-3-10-10-10-10-10-9-9-9------------------------------------|
6|--0--00-00-3-3-3-3-10-10-10-10-10-9-9-9------------------------------------|


            
            
Suggest correction
Creating personal tab
Creating personal tab
You can edit any tab online and save it as your Personal.

You can edit, replace or remove any tab part or add personal notes – all changes will be seen only by you.

Personal tabs can be accessed anytime from any device, even offline.
Learn more »
comments
print report bad tab
2 comments total.
0 reply
Janet2000 10 Apr 21, 2016 09:19 AM

There is a video by the motley misfit this looks exactly like what he is playing, And his cover was spot on. good work

guest
You may want to rate the tab now too:
select rating
Wanna post a correction for this tab? Suggest correction