Oops, an error
Loading. Please wait.

The Balcony Scene Bass Tab

4,879 views 3 this week
1 commentread comment
1 2 3 4 5
accurate
x 5
add to favorites
launch autoscroll
font size
0
reset
guitar tuner
Autoscroll
slow
fast
+/-
esc
set tempo
stop
Help us to improve Ultimate-Guitar.com Take our survey!
×
Difficulty
intermediate
THE BALCONY SCENE BASS TAB(VER. 1)
A FLAIR FOR THE DRAMATIC(2007)


Piano Intro
Verse 1
G----------------------------------------------------------------------|
D----------------------------------------------------------------------|
A----------------------------------------------------------------------|
E-11-11-33-33-00-00-11-11-3-11-11-33-33-5-00-00-3-5-11-11-0------------|

Chorus 1
G----------------------------------------------------------------------|
D----------------------------------------------------------------------|
A-------------------5-3------------------------55555555----------------|
E-111-333-7-555-333-----5-3--111-333-7-555-333-------------------------|

Verse 2
G----------------------------------------------------------------------|
D----------------------------------------------------------------------|
A----------------------------------------------------------------------|
E-11-11-33-33-00-00-11-11-3-11-11-33-33-5-00-00-3-5-11-11-0------------|

Chorus 2
G----------------------------------------------------------------------|
D----------------------------------------------------------------------|
A-------------------5-3------------------------5-3-----5-3-------------|
E-111-333-7-555-333-----5-3--111-333-7-555-333-----5-3-----5-3---------|

Bridge(Under solo)
G----------------------------------------------------------------------|
D----------------------------------------------------------------------|
A----------------------------------------------------------------------|
E-1111111111111111-3333333333333333-55555555555555555-7777777-6--------|

Final Chorus
G----------------------------------------------------------------------|
D----------------------------------------------------------------------|
A-------------------5-3------------------------5-3---------------------|
E-111-333-7-555-333-----5-3--111-333-7-555-333-----5-------------------|

Ending
G-------------------|
D-------------------|
A-------------------|
comments
print report bad tab
1 comment total.
0 reply
ashleigh.s.pool 16 wrote on November 10 2013, 09:55 am

Sounds pretty good! Great tab

I want to post or [tab]
guest
You may want to rate the tab now too:
select rating
Please do not post tabs as comments. Select "correction" instead!