Oops, an error
Loading. Please wait.

The Balcony Scene Tab

version 2
version 2

Solo

1,465 views 1 this week
no commentswrite comment
1 2 3 4 5
please rate
add to favorites
launch autoscroll
font size
0
reset
how to read this tab
guitar tuner
Autoscroll
slow
fast
+/-
esc
set tempo
stop
Help us to improve Ultimate-Guitar.com Take our survey!
×
Author
Difficulty
intermediate
-------------------------------------------------------------------------------
                                  The Balcony Scene - Pierce the Veil
-------------------------------------------------------------------------------
Tabbed by: BlesstheHorizon
Email: redtears@live.ca
Tuning: Standard
Song: The Balcony Scene
Artist: Pierce the Veil
Album: A Flair For the Dramatic


I decided to tab out this song because I've been searching for it everywhere.
 There are two solos in this song so I separated the tab into two.
******************
| /   slide up   *
| \   slide down *
| h   hammer-on  *
| ~   vibrato    *
******************


Solo 1:
e|--------------------------------------------------------------------------------|
B|----3/5------------------------------------6/88---------------------------------|
G|-----------5-5h7/9--7-5---5-7---5---5--7/9------7/99---------7-----7------------|
D|------------------------7-----7---7------------------6/7-10---7-10---6/7~-------|
A|--------------------------------------------------------------------------------|
E|--------------------------------------------------------------------------------|

e|--------------------------------------------------------------------------------|
B|--------------------------------------------------------------------------------|
G|--------------------------------------------------------------------------------|
D|--------------------------------------------------------------------------------|
A|--5~----7-5---------------------------------------------------------------------|
E|------------8-5-----------------------------------------------------------------|

Solo 2:
e|--1-1-----1-1-1---1-----1-----1-----1-----1-----1-------------------------------|
B|------0h2-------0---0h2---0h2---0h2---0h2---0h2---0h2---------------------------|
G|--------------------------------------------------------------------------------|
D|--------------------------------------------------------------------------------|
A|--------------------------------------------------------------------------------|
E|--------------------------------------------------------------------------------|

e|--------------------------7-7-8-8-10-10-12-12-15-12-15-15/17\15/17\15/17\15/17~-|
B|--1-3-3-5-5-6-6-8-8-10-10-------------------------------------------------------|
G|--------------------------------------------------------------------------------|
D|--------------------------------------------------------------------------------|
A|--------------------------------------------------------------------------------|
E|--------------------------------------------------------------------------------|
Suggest correction new What's this?
You can suggest a correction to this tab. Community and Mods will review your correction and vote to approve or reject it.
comments
We did not receive enough feedback on this tab! Please rate:
print report bad tab
1 2 3 4 5
guest
You may want to rate the tab now too:
select rating
Please do not post tabs as comments. Select "correction" instead!