Oops, an error
Loading. Please wait.

The Boy Who Could Fly solo tab

version 2
version 2

Whole song

Interactive

1,356 views 1 this week
no commentswrite comment
1 2 3 4 5
3 more votes to show rating
add to favorites
×
Save as Personal and add changes to this tab that will be seen only by you. Learn more ›
×
You can save this tab as Personal to edit and correct it or add notes. All changes will be seen only by you. Learn more »
launch autoscroll
font size
0
reset
how to read this tab
guitar tuner
edit
Autoscroll
slow
fast
+/-
esc
set tempo
stop
Author
Difficulty
This is my first tab so go easy on me. Most of the notes are correct, I'm not sure about
the ending little riff it's going a little too fast and audacity didn't do a very good
job at slowing it down.

Hopefully this will at least put people on the right track. =)

(/) Slide Up  (\) Slide Down  (h) Hammer On  (p) Pull Off  (b) Bend (r) Release (~) Vibrato


E|---------------------------------------------------------------------------------|
B|-15b17-17-15-13----13----------------------------------------------15------------|
G|----------------16----16-12h14---------14-16b19r16-14----14-14b16----16r14-12----|
D|-------------------------------9/14-17----------------17-------------------------|
A|---------------------------------------------------------------------------------|
E|---------------------------------------------------------------------------------|



E|----------------------------------------------------|
B|----------------------------12-15-12----------------|
G|-11-9-11-14-----12~-14~-16~----------15-16r15-14-12-|
D|-X--X-X--X--14~-------------------------------------|
A|-9--7-9--12-----------------------------------------|
E|----------------------------------------------------|

            
            
Suggest correction
Creating personal tab
Creating personal tab
You can edit any tab online and save it as your Personal.

You can edit, replace or remove any tab part or add personal notes – all changes will be seen only by you.

Personal tabs can be accessed anytime from any device, even offline.
Learn more »
Give kudos to tab author, rate the tab!
1 2 3 4 5
comments
print report bad tab
guest
You may want to rate the tab now too:
select rating
Wanna post a correction for this tab? Suggest correction