Oops, an error
Loading. Please wait.

The Cheap Bouquet tab

version 1
version 1

Whole song

  • Improvised tab with capo on the 3rd fret (as they ... Show more
91 views 12 this week
no commentswrite comment
1 2 3 4 5
1 last vote to show rating
add to favorites
×
Save as Personal and add changes to this tab that will be seen only by you. Learn more ›
×
You can save this tab as Personal to edit and correct it or add notes. All changes will be seen only by you. Learn more »
launch autoscroll
font size
0
reset
how to read this tab
guitar tuner
edit
Autoscroll
slow
fast
+/-
esc
set tempo
stop
About this tab version
Improvised tab with capo on the 3rd fret (as they used in the studio and in live performances). Was this info helpful? Yes No
[Song: The Cheap Bouquet
Album: A Flair For The Dramatic
Artist: Pierce The Veil
Notice: Numbers on tab are not relevant to the capo on the 3rd fret.

[Intro]
(This part can be played just for fun)
e|-------|-------|-------|-----------------|
B|-8-8-8-|-6-6-6-|-8-8-8-|-6-6-6-6-6-6-6-6-|
G|-------|-------|-------|-----------------|
D|-------|-------|-------|-----------------| [x3]
A|-------|-------|-------|-----------------|
D|-------|-------|-------|-----------------|

"Stay young..." (If you don't like doing what's below then it suits just the D string alone also.)

e|---|-----|-------|-------|-------|-------|-------|-------|-------|-------|-------|
B|---|-----|-------|-------|-------|-------|-------|-------|-------|-------|-------|
G|---|-----|-------|-------|-------|-------|-------|-------|-------|-------|-------|
D|-0-|-0h5-|-0-0h5-|-0-0h5-|-0-0h5-|-0-0h5-|-0-0h5-|-0-0h5-|-0-0h5-|-0-0h5-|-0-0h5-|
A|-0-|-0h5-|-0-0h5-|-0-0h5-|-0-0h5-|-0-0h5-|-0-0h5-|-0-0h5-|-0-0h5-|-0-0h5-|-0-0h5-|
E|---|-----|-------|-------|-------|-------|-------|-------|-------|-------|-------|

e|-------|-------|-------|-------|----------5------|
B|-------|-------|-------|-------|------------6p0--|
G|-------|-------|-------|-------|--------0--------|
D|-0-0h5-|-0-0h5-|-0-0h5-|-0-0h5-|--0h5h7----------|
A|-0-0h5-|-0-0h5-|-0-0h5-|-0-0h5-|-----------------|
E|-------|-------|-------|-------|-----------------|

e|----------|-----------------|-------|---------|-----------------|
B|-/11------|-----11-10-------|-------|---6-6---|---6-6-\4--------|
G|-----10-7-|-/10-------12----|-5-5/7-|-------8-|----------7-5/7~-|
D|----------|--------------12-|-------|-8-------|-8---------------|
A|----------|-----------------|-------|---------|-----------------|
E|----------|-----------------|-------|---------|-----------------|

[Verse] "It's getting dark we should go back..." (Preferable to strum down-up and use clean tone or acoustic)
e|-----------------------------------|-----------------------------------|
B|-----------------------------------|-----------------------------------|
G|--8-8-8-8-8-8-8-8-8-8-8-8-8-8-8-8--|--8-8-8-8-8-8-8-8-8-8-8-8-8-8-8-8--|
D|--8-8-8-8-8-8-8-8-8-8-8-8-8-8-8-8--|--8-8-8-8-8-8-8-8-8-8-8-8-8-8-8-8--|
A|--6-6-6-6-6-6-6-6-6-6-6-6-6-6-6-6--|--x-x-x-x-x-x-x-x-x-x-x-x-x-x-x-x--|
E|-----------------------------------|--8-8-8-8-8-8-8-8-8-8-8-8-8-8-8-8--|

           Em Chord

e|--0-0-0-0-0-0-0-0-0-0-0-0-0-0-0-0--|-----------------------------------|
B|--0-0-0-0-0-0-0-0-0-0-0-0-0-0-0-0--|-----------------------------------|
G|--0-0-0-0-0-0-0-0-0-0-0-0-0-0-0-0--|-----------------------------------|
D|--5-5-5-5-5-5-5-5-5-5-5-5-5-5-5-5--|--8-8-8-8-8-8-8-8-8-8-8-8-8-8-8-8--|
A|--5-5-5-5-5-5-5-5-5-5-5-5-5-5-5-5--|--8-8-8-8-8-8-8-8-8-8-8-8-8-8-8-8--|
E|--0-0-0-0-0-0-0-0-0-0-0-0-0-0-0-0--|--6-6-6-6-6-6-6-6-6-6-6-6-6-6-6-6--|

"And I could die right now..." (Play first part, then break, and then hit second part)
e|---------------|-------------------------|
B|---------------|-------------------------|
G|----8-8-8-8-8--|-------------------------|
D|----8-8-8-8-8--|-----8-8-8-8-8-8-8-8-----|
A|----6-6-6-6-6--|-----8-8-8-8-8-8-8-8-----|
E|---------------|-----6-6-6-6-6-6-6-6-----|

e|----------------|-----------------|----------------|-----------------|----------------|
B|-6p0------------|-----------------|-6p0------------|-----------------|-6p0------------|
G|----5p0---------|-----------------|----5p0---------|-----------------|----5p0---------|
D|--------5p0-----|-5-5-5-5-5-5-5-5-|--------5p0-----|-5-5-5-5-5-5-5-5-|--------5p0-----|
A|------------5p0-|-5-5-5-5-5-5-5-5-|------------5p0-|-5-5-5-5-5-5-5-5-|------------5p0-|
E|----------------|-0-0-0-0-0-0-0-0-|----------------|-0-0-0-0-0-0-0-0-|----------------|

e|-----------------|-----------------|-------------------------------|
B|-----------------|-----------------|-------------------------------|
G|-----------------|-----------------|-------------------------------|
D|-5-5-5-5-5-5-5-5-|-8-8-8-8-8-8-8-8-|-10-10-10-10-10-10-10-10-10-10-|
A|-5-5-5-5-5-5-5-5-|-8-8-8-8-8-8-8-8-|-10-10-10-10-10-10-10-10-10-10-|
E|-0-0-0-0-0-0-0-0-|-6-6-6-6-6-6-6-6-|--8--8--8--8--8--8--8--8--8--8-|

[Chorus] "Calm down as I drag..."
e|------------|-------------------|---------|-----------|------------------|
B|--/11-------|------11-10--------|---------|----6-6----|----6-6-\4--------|
G|------10-7--|--/10-------12-----|--5-5/7--|--------8--|-----------7-5/7~-|
D|------------|---------------12--|---------|--8--------|--8---------------|
A|------------|-------------------|---------|-----------|------------------|
E|------------|-------------------|---------|-----------|------------------|

[Verse] "I'm going to buy a cheap bouquet.."
e|----------------------|
B|----------------------|
G|----17-19-20-19-17----|
D|-17----------------17-| [x8]
A|----------------------|
E|----------------------|
   ^       PM        ^

(Release palm mute!)
e|----------------------|
B|----------------------|
G|----17-19-20-19-17----|
D|-17----------------17-| [x9]
A|----------------------|
E|----------------------|

[Chorus] "..Lungs are begging us o calm down..."
e|-----------------|---------|-------------|-------|---------|--------------|
B|-6p0-------------|---------|-11-10-------|-------|---6-6---|---6-6-\4-----|
G|-----5p0---------|---------|-------12----|-5-5/7-|-------8-|----------7-5-|
D|---------5p0-----|-5--5--5-|----------12-|-------|-8-------|-8------------|
A|-------------5p0-|-5--5--5-|-------------|-------|---------|--------------|
E|-----------------|-0--0--0-|-------------|-------|---------|--------------|

e|-------------------------------------------------|---------|
B|-------------------------------------------------|---13b---|
G|-12-12-12-12-12-12-12-12-12-12-12-12-12-12-12-12-|---------|
D|-------------------------------------------------|---------|
A|-------------------------------------------------|---------|
E|-------------------------------------------------|---------|

[Instrumental Breakdown 1] (N = Tremolo)
e|--6--0(N)------|--6--0(N)-------|--6--0(N)-------|--6--0(N)------|--6--0(N)-----|
B|-----------6p0-|-----------6p0--|-----------6p0--|-----------6p0-|-----------6p0|
G|---------------|----------------|----------------|---------------|--------------|
D|---------------|----------------|----------------|---------------|--------------|
A|---------------|----------------|----------------|---------------|--------------|
E|---------------|----------------|----------------|---------------|--------------|

e|-0-5h6-|-0-6h8-|-0-8h10-|-0-10h11-|-0-11h13/15-|
B|-------|-------|--------|---------|------------|
G|-------|-------|--------|---------|------------|
D|-------|-------|--------|---------|------------|
A|-------|-------|--------|---------|------------|
E|-------\-------|--------|---------|------------|

e|---------6-|--------|-----6--------|-5h6-0-|-6h8-0-|-8h10-0-|-10h11-0-|-11h13/15-|
B|-6h8p6h8---|-8-6-8~-|-6-8---8-6-8~-|-------|-------|--------|---------|----------|
G|-----------|--------|--------------|-------|-------|--------|---------|----------|
D|-----------|--------|--------------|-------|-------|--------|---------|----------|
A|-----------|--------|--------------|-------|-------|--------|---------|----------|
E|-----------|--------|--------------|-------|-------|--------|---------|----------|

(Let this ring (for below))

[Guitar 1]
e|-------|
B|-------|
G|-------|
D|---5---|
A|---5---|
E|---0---|

[Guitar 2]
e|----------|
B|-11-------|
G|----12----|
D|-------12-| [x10]
A|----------|
E|----------|

(Might not be accurate as far as position being played)

e|-0-0-6p0-|-0-6p0-|-0-6p0-6p0-|---------|
B|---------|-------|-----------|---6-7-8-|
G|---------|-------|-----------|-7-------|
D|---------|-------|-----------|---------| [x3]
A|---------|-------|-----------|---------|
E|---------|-------|-----------|---------|

e|--------5------|
B|----------6p0--|
G|------0--------|
D|--5h7----------|
A|---------------|
E|---------------|

[Chorus]
e|------------|-------------------|---------|-----------|------------------|
B|--/11-------|------11-10--------|---------|----6-6----|----6-6-\4--------|
G|------10-7--|--/10-------12-----|--5-5/7--|--------8--|-----------7-5/7~-|
D|------------|---------------12--|---------|--8--------|--8---------------|
A|------------|-------------------|---------|-----------|------------------|
E|------------|-------------------|---------|-----------|------------------|

e|---------|---------------|-------------|-------|----------|-----------6----/10-|
B|---------|---------------|-------------|-------|----6-6---|---6-6--------8-----|
G|5-7-8-10-|-0-5-0-5-7-5-0-|-0-5-0-5-7-5-|-/10-8-|--------8-|--------8-----------|
D|---------|---------------|-------------|-------|--8-------|-8------------------|
A|---------|---------------|-------------|-------|----------|--------------------|
E|---------|---------------|-------------|-------|----------|--------------------|

(N = Tremolo) ((You can improvise this little riff to your desire)

e|-------------------------|
B|-15(N)-------------------|
G|-------12(N)-14(N)h15(N)-|
D|-------------------------| [x6]
A|-------------------------| After you play this for the 6th time
E|-------------------------| hit the 12th frret on G once then ...

(* = Pinch Harmonic)

e|-------------|---------|----------------|
B|-6/8-8-8-8\6-|-6/8-8-8-|----------------|
G|-------------|---------|-7-5---5*-------|
D|-------------|---------|-----8----8-7-5-|
A|-------------|---------|----------------|
E|-------------|---------|----------------|

e|----------------|
B|----------------|
G|----------------|
D|----------------| [x3]
A|----------------|
E|-0-0h6-0h6h8-8b-|

e|-------------|
B|-------------|
G|-------------|
D|-------------|
A|-------------|
E|-6p0-9-8-6-0-|

e|------------------|
B|------------------|
G|------------------|
D|------------------| [x3]
A|------------------|
E|-0-0h6-0h6h8-8b*~-|

e|-------------|
B|-------------|
G|-------------|
D|-------------|
A|-------------|
E|-6p0-9-8-6-0-|

************************************

| h   Hammer-on
| p   Pull-off
| *   Pinch Harmonic
| b   Bend
| /   Slide up
| \   Slide down
| ~   Vibrato
| PM  Palm mute
| N   Tremolo

************************************

            
            
Suggest correction
Creating personal tab
Creating personal tab
You can edit any tab online and save it as your Personal.

You can edit, replace or remove any tab part or add personal notes – all changes will be seen only by you.

Personal tabs can be accessed anytime from any device, even offline.
Learn more »
Give kudos to tab author, rate the tab!
1 2 3 4 5
comments
print report bad tab
guest
You may want to rate the tab now too:
select rating
Wanna post a correction for this tab? Suggest correction