Oops, an error
Loading. Please wait.

The Divine Zero bass

version 1
version 1

Whole song

Interactive

2,460 views 6 this week
no commentswrite comment
1 2 3 4 5
x 6
add to favorites
×
Save as Personal and add changes to this tab that will be seen only by you. Learn more ›
×
You can save this tab as Personal to edit and correct it or add notes. All changes will be seen only by you. Learn more »
launch autoscroll
font size
0
reset
guitar tuner
edit
Autoscroll
slow
fast
+/-
esc
set tempo
stop
Pierce the Veil - The Divine Zero

Tabbed by: Ashy (XxThreeCheersxX)
E-mail: burdickash@gmail.com

Tuning: Drop C# (C# G# C# F#)

This is one of the hardest songs I've had to tab, considering all of the fills, so please let me know if there
is any mistakes, and happy playing!

Intro
F#|------------------------------------------------------------------------------------------------------|
C#|------------------------------------------------------------------------------------------------------|
G#|------------------------------------------------------------------------------------------------------|
C#|-5-5-5x----------------5-5-5x--------------/8-8-8x---------------8-8-8x----8-8-8x----8-8x----\--------|

Verse I
F#|----------------------------------------------------------------|
C#|----------------------------------------------------------------|
G#|---------------------8-8-7----------------------8-7--5-7--------|
C#|-0-0x----------------------10-12-12x----------------------10-10-|

F#|---------------------------------------------------------------------|
C#|---------------------------------------------------------------------|
G#|-------------------------3-3-1-1x----1-1x----1-1x----1-1-1-1-1-1-1-1-|
C#|-8-8x----------------3-3---------------------------------------------|

Pre-Chorus
F#|-----------------------------------------------------------------|
C#|-----------------------------------------------------------------|
G#|-----------------------------------------------------------------|
C#|-5-5-5-5-5-5-5-5-5-5-5-5-5-5-5-5-5-5-5-5-5-5-5-5-5-5-5-5-3-3-3-3-|

F#|-----------------------------------------------------------------|
C#|---------------------------------5-5-5-5-5-5-5-5-5-5-5-5-3-3-3-3-|
G#|-----------------------------------------------------------------|
C#|-5-5-5-5-5-5-5-5-5-5-5-5-5-5-5-5---------------------------------|

F#|----------------------------------------------------------------------------------|
C#|----------------------------------------------------------------------------------|
G#|-1-1-1-1-1-1-1-1-1-1-1-1-1-1-1/13-13-13-13-13-13-13-13-13-13-13-13-13-12-12-12-12-|
C#|----------------------------------------------------------------------------------|

F#|-------------------------------------------------------------------|
C#|-------------------------------------------------------------------|
G#|-1-1-1-1-1-1-1-1-1-1-1-1-1-1-1-1/3-3-3-3-3-3-3-3-3--3--3--3--3--3--|
C#|-------------------------------------------------------------------|

Chorus
F#|-------------------------------------------------------------------------------------------------|
C#|-------------------------------------------------------------------------------------------------|
G#|-------------------------------------------------------------------------------------7--8--7--0--|
C#|-0--0--0--0--0--0--0--0--3--3--3--3--3--3--3--3--8--8--8--8--8--8--8--8--8--8--8--8--------------|

F#|----------------------------------------------------------------------------------------|
C#|-----------------------------------------------------------------8--8--8-----8--7--5----|
G#|--------------------------------------------------------------8-----------8-------------|
C#|-5----5-5-5--3--5--7----7-7-7--7--/10--8--8--8--8--8--8--8--8---------------------------|

Verse II
F#|-----------------------------5----3-5------------------------------------|
C#|------------------------5------------------------------------------------|
G#|-------------------5-----------------------------------------------------|
C#|-5-5-5x--------------------------------5-5-5x----------------3--3--7--7--|

F#|--------------------------------------------------------------------------------------------|
C#|--------------------------------------------------------------------------------------------|
G#|--------------(vocals and drums)------------------------------------------------------------|
C#|-8-8-8x---------------------------------8-8-8x----8-8-8x----8-8x----8-8-8x----8-8-8x----17\-|

"And let the fire rage"
F#|------------------------------------------------------------------------|
C#|------------------------------------------------------------------------|
G#|---------------5----7----8---/12-------------------5----7----8----------|
C#|-5-5-5x-----------------------------5-5-5x------------------------10----|

note: if you don't have a 20th fret, just hit the 8 in parentheses)
F#|---------------------------------------------------------------------------|
C#|-----------------------------(8)-------------------------------------------|
G#|---------------------------------------------------------------------------|
C#|-8-8-8x----------------------20\---8-8-8x----8-8-8x----8-8x----8x----------|

Chorus II 
F#|-------------------------------------------------------------------------------------------------|
C#|-------------------------------------------------------------------------------------------------|
G#|-------------------------------------------------------------------------------------7--8--7--0--|
C#|-0--0--0--0--0--0--0--0--3--3--3--3--3--2--3--7--8--8--8--8--8--8--8--8--8--8--8--8--------------|

F#|----------------------------------------------------------------------------------------|
C#|-----------------------------------------------------------------8--8--8--8--8--8--8\---|
G#|--------------------------------------------------------------8-------------------------|
C#|-5----5-5-5--3--5--7----7-7-7--7--/10--8--8--8--8--8--8--8--8---------------------------|

"now I only pray when it all goes down"
F#|-------------------------------------------------------------------------------------------------|
C#|-------------------------------------------------------------------------------------------------|
G#|-------------------------------------------------3--3--3--3--3--3--3--3--1--1--1--1--1--1--0--0--|
C#|-0--0--0--0--0--0--0--0--3--3--3--3--3--3--3--3--------------------------------------------------|

F#|-------------------------------------------------------------------------------------------------|
C#|-------------------------------------2-----2-----------------------------------------------------|
G#|-------------------------------------------------------------------------------------------------|
C#|-0--0--0--0--0--0--0--0--2--2--2--2-----2-----2--3--3--3--3--3--3--3--3--5--5--5--5--5--5--5--5--|

F#|-------------------------|
C#|-------------------------|
G#|-------------------------|
C#|-5--5--5--5--5--5--5--5--|

- Interlude -

Breakdown 
F#|--------------------------------------------------------------------------------------------|
C#|--------------------------------------------------------------------------------------------|
G#|---------------------------------------------------------------------------------10----8----|
C#|-0-0x----------------0x---------------0~---0x----------------0-0x---------------------------|

F#|----------------------------------------------------------------------------------------------|
C#|----------------------------------------------------------------------------------------------|
G#|-----------------------------------------------------8--7--5----------5-----------4--5--7-----|
C#|-8-8x----------------8x---------------8~---8--8-8-8-----------8-8x-------7x----0-----------0--|

Pre-Chorus (same as before)

Final Chorus
F#|-------------------------------------------------------------------------------------------------|
C#|-------------------------------------------------------------------------------------------------|
G#|-------------------------------------------------------------------------------------7--8--7--0--|
C#|-0--0--0--0--0--0--0--0--3--3--3--3--3--2--3--7--8--8--8--8--8--8--8--8--8--8--8--8--------------|

F#|----------------------------------------------------------------------------------------|
C#|-----------------------------------------------------------------8--8--8--8--8--8--8\---|
G#|--------------------------------------------------------------8-------------------------|
C#|-5----5-5-5--3--5--7----7-7-7--7--/10--8--8--8--8--8--8--8--8---------------------------|

"now I only pray when it all goes down"
F#|-------------------------------------------------------------------------------------------------|
C#|-------------------------------------------------------------------------------------------------|
G#|-------------------------------------------------3--3--3--3--3--3--3--3--1--1--1--1--1--1--0--0--|
C#|-0--0--0--0--0--0--0--0--3--3--3--3--3--3--3--3--------------------------------------------------|

F#|-------------------------------------------------------------------------------------------------|
C#|-------------------------------------2-----2-----------------------------------------------------|
G#|-------------------------------------------------------------------------------------------------|
C#|-0--0--0--0--0--0--0--0--2--2--2--2-----2-----2--3--3--3--3--3--3--3--3--5--5--5--5--5--5--5--5--|

F#|-------------------------|
C#|-------------------------|
G#|-------------------------|
C#|-5--5--5--5--5--5--5--5--|

Outro
F#|------------------------------------------------------------------------------|
C#|----------------------------------7--7----7-----------------------------------|
G#|-----------------------5--5----5-------------8--8----8--10--10----10----------|
C#|-5--5----5--7--7----7-------------------------------------------------7--7----|

F#|-----------------------------------------------------------|
C#|---------------7--7----7-----------------------------------|
G#|----5--5----5-------------8--8----8--10--10----10----------| repeat as the song fades out
C#|-7-------------------------------------------------7--7----|

| /  slide up
| \  slide down
| h  hammer-on
| p  pull-off
| ~  vibrato
| +  harmonic
| x  Mu0te note
===============================================================================

            
            
Suggest correction
Creating personal tab
Creating personal tab
You can edit any tab online and save it as your Personal.

You can edit, replace or remove any tab part or add personal notes – all changes will be seen only by you.

Personal tabs can be accessed anytime from any device, even offline.
Learn more »
comments
print report bad tab
guest
You may want to rate the tab now too:
select rating
Wanna post a correction for this tab? Suggest correction