Oops, an error
Loading. Please wait.

The Divine Zero tab

version 1
version 1

Whole song

Interactive

16,177 views 39 this week
8 commentsread comments
1 2 3 4 5
x 11
add to favorites
×
Save as Personal and add changes to this tab that will be seen only by you. Learn more ›
×
You can save this tab as Personal to edit and correct it or add notes. All changes will be seen only by you. Learn more »
launch autoscroll
font size
0
reset
how to read this tab
guitar tuner
edit
Autoscroll
slow
fast
+/-
esc
set tempo
stop
-------------------------------------------------------------------------------
                       The Divine Zero - Pierce the Veil
-------------------------------------------------------------------------------
Tabbed by:Anthony Gonzalez
E-mail:Splidao@hotmail.com
Watch my cover of this song here https://www.youtube.com/watch?v=N3PuTQTD1dk
Tuning:Drop C#


[Verse]
e|---------------------------------------------------------------------------|
B|-10------10------13-------------------------13-----------------------------|
G|-10-------7------10--10-12-10-9-10-12-10-9--10--10-12-10-9-10-12-10-9------|
D|-12-------8------12-------------------------12-----------------------------|
A|-13------10------13-------------------------13-----------------------------|
E|---------------------------------------------------------------------------|
           
e|---------------------------------------------------------------------------|
B|----------11/13--------------------6--8--10--13----------------------------|
G|----------------12-10-12-----------x--x---x---x----------------------------|
D|-8--12-15----------------10-12--8--3--8---7--10----------------------------|
A|-8------------------------------8------------------------------------------|
E|-8------------------------------8------------------------------------------|

e|---------------------------------------------------------------------------|
B|-8--13--11--10--11----11--8--13--11--10--11----10--11--10--13--------------|
G|-x---x---x---x--x------x--x---x---x---x---x-----x---x---x---x--------------|
D|-5--10---8---7--8------7--5--10---8---7---8-----7---8---7--10--------------|
A|---------------------------------------------------------------------------|
E|---------------------------------------------------------------------------|


[Chorus]
e|----8t-5t-3t-----10t-5t-----------12t-13t-8t-12t-13t-8t--------------------|
B|-6t-----------6t-----------------------------------------11--10--8--10-----|
G|----------------------------------------------------------x---x--x---x-----|
D|----------------------------------------------------------8---7--5---7-----|
A|-------------------------7-8-7-0-------------------------------------------|
E|---------------------------------------------------------------------------|

e|---------------------------------------------------------------------------|
B|-10-----------------------10-11-10-8----------------10-6-8-10-5------------|
G|--7-----------------10-12---------------------10-12-------------7~---------|
D|--8----8----5--8/12-------------------5--8/12-----------------------8------|
A|-10----8----5-------------------------5-----------------------------8------|
E|-------8----5-------------------------5-----------------------------8------|

e|----8t-5t-3t-----10t-5t-----------12t-13t-8t-12t-13t-8t--------------------|
B|-6t-----------6t-----------------------------------------11--10--8--10-----|
G|----------------------------------------------------------x---x--x---x-----|
D|----------------------------------------------------------8---7--5---7-----|
A|-------------------------7-8-7-0-------------------------------------------|
E|---------------------------------------------------------------------------|

e|---------------------------------------------------------------------------|
B|---------------------------------------------------------------------------|
G|---------------------------------------------------------------------------|
D|------------------------(0)------------------------------------------------|
A|---------------7-8-10t--(0)------------------------------------------------|
E|-0-3-10-8-7--0----------(1)------------------------------------------------|


[Breakdown]
e|---------------------------------------------------------------------------|
B|---------------------------------------------------------------------------|
G|---------------------------------------------------------------------------|
D|---------------------------------------------------------------------------|
A|---7/8-7/8-5---7-5-----4-5-7---(3x)-------7/8-7/8--5---7-------------------|
E|-0-----------0-----7-0-------0-----------------------0---------------------|

e|---------------------------------------------------------------------------|
B|---------------------------------------------------------------------------|
G|---------------------------------------------------------------------------|
D|-------------------------------------------------5+------3/5-3-------------|
A|---7/8-7/8-5---7-5-----4-5-7-----7/8-7/8--5---7-----5+---------------------|
E|-0-----------0-----7-0-------0--------------0----------0--------0----------|

e|---------------------------------------------------------------------------|
B|---------------------------------------------------------------------------|
G|---------------------------------------------------------------------------|
D|---------------------------------------------------------------------------|
A|---7/8-7/8-5---7-5-----4-5-7-----7/8-7/8--5---7-5-----4-5-7----------------|
E|-0-----------0-----7-0-------0--------------0-----7-0-------0--------------|




e|---------------------------------------------------------------------------|
B|-8--13--11--10--11----11--8--13--11--10--11----10--11--10--8--6------------|
G|-x---x---x---x--x------x--x---x---x---x---x-----x---x---x--x--x------------|
D|-5--10---8---7--8------7--5--10---8---7---8-----7---8---7--5--3------------|
A|---------------------------------------------------------------------------|
E|---------------------------------------------------------------------------|

e|---------------------------------------------------------------------------|
B|-5-6-5-3-6-3-5-6---5-6-5-3-6-3-5-6---5-6-5-3-6-3-5-6---5-6-5-3-6-3-5-6-----|
G|---------------------------------------------------------------------------|
D|---------------------------------------------------------------------------|
A|---------------------------------------------------------------------------|
E|---------------------------------------------------------------------------|


[Chorus]
e|----8t-5t-3t-----10t-5t-----------12t-13t-8t-12t-13t-8t--------------------|
B|-6t-----------6t-----------------------------------------11--10--8--10-----|
G|----------------------------------------------------------x---x--x---x-----|
D|----------------------------------------------------------8---7--5---7-----|
A|-------------------------7-8-7-0-------------------------------------------|
E|---------------------------------------------------------------------------|

e|---------------------------------------------------------------------------|
B|---------------------------------------------------------------------------|
G|---------------------------------------------------------------------------|
D|---------------------------------------------------------------------------|
A|-------------------7-8-10tb------------------------------------------------|
E|-0-3-10-8-7--0-(0)---------------------------------------------------------|

e|---------------------------------------------------------------------------|
B|---------------------------------------------------------------------------|
G|---------------------------------------------------------------------------|
D|---------------------------------------------------------------------------|
A|---------------------------------------------------------------------------|
E|-5-5--5-7-7----------------------------------------------------------------|

e|---------------------------------------------------------------------------|
B|---------------------------------------------------------------------------|
G|---------------------------------------------------------------------------|
D|-----------7-7--7-3-3--3-5-5--5--------------------------------------------|repeat till end
A|----5-5--5-----------------------------------------------------------------|
E|--7-----------------------------7-7----------------------------------------|



************************************

| /   slide up
| \   slide down
| h   hammer-on
| p   pull-off
| ~   vibrato
| +   harmonic
| x   Mute note
| b   Bend
| pb  Pre-bend
| br  Bend release
| pbr Pre-bend release
| brb Bend release bend

************************************

            
            
Suggest correction
Creating personal tab
Creating personal tab
You can edit any tab online and save it as your Personal.

You can edit, replace or remove any tab part or add personal notes – all changes will be seen only by you.

Personal tabs can be accessed anytime from any device, even offline.
Learn more »
comments
print report bad tab
8 comments total. Showing first comments.
0 reply
UmbraMachina 282 Jun 25, 2015 06:02 PM

This is really good, especially considering how fast this was posted. The only issue I found was the breakdown riff, which is more like this:

e|---------------------------|
B|---------------------------|
G|---------------------------|
D|---------------------------|
A|---8---8-8---7-5---4-5-7-5-|
E|-0---0-----0-----7---------|


The harmonics and every other part of the bridge are fine, it's just that first part.

0 reply
bvbarmy72 10 Jul 27, 2015 06:40 PM

Your're right, but replace
e|---------------------------|
B|---------------------------|
G|---------------------------|
D|---------------------------|
A|---8---8-8---7-5---4-5-7-5-|
E|-0---0-----0-----7---------|
with this --->

e|---------------------------|
B|---------------------------|
G|---------------------------|
D|---------------------------|
A|---8---8-5---7-5---4-5-7-5-|
E|-0---0-----0-----7---------|

0 reply
bvbarmy72 10 Jul 27, 2015 06:40 PM

Your're right, but replace
e|---------------------------|
B|---------------------------|
G|---------------------------|
D|---------------------------|
A|---8---8-8---7-5---4-5-7-5-|
E|-0---0-----0-----7---------|
with this --->

e|---------------------------|
B|---------------------------|
G|---------------------------|
D|---------------------------|
A|---8---8-5---7-5---4-5-7-5-|
E|-0---0-----0-----7---------|

guest
You may want to rate the tab now too:
select rating
Wanna post a correction for this tab? Suggest correction