Oops, an error
Loading. Please wait.

The First Punch bass

2,371 views 1 this week
8 commentsread comments
1 2 3 4 5
x 3
add to favorites
×
Save as Personal and add changes to this tab that will be seen only by you. Learn more ›
×
You can save this tab as Personal to edit and correct it or add notes. All changes will be seen only by you. Learn more »
launch autoscroll
font size
0
reset
guitar tuner
edit
Autoscroll
slow
fast
+/-
esc
set tempo
stop
So I've tabbed this song in 5 String standard AND Drop B!

=================================================================================================
Drop B
=================================================================================================
  
   0:20 Intro
E |-------------------------------------------------------------------|
B |o---2-----2-----2-----2-----2-2-2---0-----0-----0-----0-----0-----o|
F#|o-0---3-0---3-0---3-0---3-0-------2---3-2---3-2---3-2---3-2---3-2-o|
B |-------------------------------------------------------------------|
     1 + 2 + 3 + 4 + 1 + 2 + 3 + 4 + 1 + 2 + 3 + 4 + 1 + 2 + 3 + 4 +

E |---------------------------------|
B |---------------------------------|
F#|---------------------------------|
B |-7-------7-------7---\-----------|
    1 + 2 + 3 + 4 + 1 + 2 + 3 + 4 +

   Verse
E |-----------------------------------------------------------------|
B |-----------------------------------------------------------------|
F#|-0-00-00-0-00-00-0-00-00-0-00-00-3-3-3-3-3-3-3-3-----------3-3-3-|
B |-------------------------------------------------6-6-6-6-6-------|
    1 + 2 + 3 + 4 + 1 + 2 + 3 + 4 + 1 + 2 + 3 + 4 + 1 + 2 + 3 + 4 +

E |-----------------------------------------------------------------|
B |-----------------------------------------------------------------|
F#|-0-00-00-0-00-00-0-00-00-0-00-00-3-------3-----------------3-3-3-|
B |-------------------------------------------------6-------6-------|
    1 + 2 + 3 + 4 + 1 + 2 + 3 + 4 + 1 + 2 + 3 + 4 + 1 + 2 + 3 + 4 +

   Pre-Chorus
E |-------------------------------------------------------------------|
B |o-----------------------------------------------------------------o|
F#|o-----------------------------------------------------------------o|
B |--7-77-77-7-77-77-7-77-77-7-77-77-3-33-33-3-33-33-6-66-66-6-66-66--|
     1 + 2 + 3 + 4 + 1 + 2 + 3 + 4 + 1 + 2 + 3 + 4 + 1 + 2 + 3 + 4 +
   
   Chorus
E |-----------------------------------------------------------------|
B |-----------------------------------------------------------------|
F#|-0-0-0-0-0-0-0-0-0-0-0-0-0-0-0-0-----3-3-2-2-0-0----/7---5---3---|
B |---------------------------------3---------------3---------------|
    1 + 2 + 3 + 4 + 1 + 2 + 3 + 4 + 1 + 2 + 3 + 4 + 1 + 2 + 3 + 4 +

E |-----------------------------------------------------------------|
B |-----------------------------------------------------------------|
F#|-0-0-0-0-0-0-0-0-0-0-0-0-0-0-0-0-8---8---8-8-8---7---------------|
B |-----------------------------------------------------3---3---5---|
    1 + 2 + 3 + 4 + 1 + 2 + 3 + 4 + 1 + 2 + 3 + 4 + 1 + 2 + 3 + 4 +

E |-----------------------------------------------------------------|
B |-----------------------------------------------------------------|
F#|-0-0-0-0-0-0-0-0-0-0-0-0-0-0-5-7-8-8-8-8-8-8-8-8-7---------------|
B |-----------------------------------------------------3---3---5---|
    1 + 2 + 3 + 4 + 1 + 2 + 3 + 4 + 1 + 2 + 3 + 4 + 1 + 2 + 3 + 4 +

E |-----------------------------------------------------------------|
B |-----------------------------------------------------------------|
F#|-0-0-0-0-0-0-0-0-0-0-0-0-0-0-0-0---------------------------------|
B |---------------------------------3-3-3-3-3-3-3-3-6---------------|
    1 + 2 + 3 + 4 + 1 + 2 + 3 + 4 + 1 + 2 + 3 + 4 + 1 + 2 + 3 + 4 +

   Verse
E |-----------------------------------------------------------------|
B |-----------------------------------------------------------------|
F#|-0-0-0---0-0-0---0-0-0---0-0-0-----------------------------------|
B |---------------------------------3-3-3---3-3-3---6---------------|
    1 + 2 + 3 + 4 + 1 + 2 + 3 + 4 + 1 + 2 + 3 + 4 + 1 + 2 + 3 + 4 +

E |-----------------------------------------------------------------|
B |-----------------------------------------------------------------|
F#|-0-0-0---0-0-0---0-0-0---0-0-0-----------------------------------|
B |---------------------------------3---------------6---------------|
    1 + 2 + 3 + 4 + 1 + 2 + 3 + 4 + 1 + 2 + 3 + 4 + 1 + 2 + 3 + 4 +

E |-----------------------------------------------------------------|
B |-----------------------------------------------------------------|
F#|-0-------------------------------0-------------------------------|
B |-----------------------------------------------------------------|
    1 + 2 + 3 + 4 + 1 + 2 + 3 + 4 + 1 + 2 + 3 + 4 + 1 + 2 + 3 + 4 +

E |-----------------------------------------------------------------|
B |-----------------------------------------------------------------|
F#|-0---0---0-0-0---6-6-6-6-6-6-6-6---------------------------------|
B |---------------------------------3---------------5---------------|
    1 + 2 + 3 + 4 + 1 + 2 + 3 + 4 + 1 + 2 + 3 + 4 + 1 + 2 + 3 + 4 +

E |---------------------------------|
B |---------------------------------|
F#|---------------------------------|
B |-2---------------2-2-2-2-2-------|
    1 + 2 + 3 + 4 + 1 + 2 + 3 + 4 +

   Chorus
E |-----------------------------------------------------------------|
B |-----------------------------------------------------------------|
F#|-0-0-0-0-0-0-0-0-0-0-0-0-0-0-0-0-----3-3-2-2-0-0----/7---5---3---|
B |---------------------------------3---------------3---------------|
    1 + 2 + 3 + 4 + 1 + 2 + 3 + 4 + 1 + 2 + 3 + 4 + 1 + 2 + 3 + 4 +

E |-----------------------------------------------------------------|
B |-----------------------------------------------------------------|
F#|-0-0-0-0-0-0-0-0-0-0-0-0-0-0-0-0-8---8---8-8-8---7---------------|
B |-----------------------------------------------------3---3---5---|
    1 + 2 + 3 + 4 + 1 + 2 + 3 + 4 + 1 + 2 + 3 + 4 + 1 + 2 + 3 + 4 +

E |-----------------------------------------------------------------|
B |-----------------------------------------------------------------|
F#|-0-0-0-0-0-0-0-0-0-0-0-0-0-0-5-7-8-8-8-8-8-8-8-8-7---------------|
B |-----------------------------------------------------3---3---5---|
    1 + 2 + 3 + 4 + 1 + 2 + 3 + 4 + 1 + 2 + 3 + 4 + 1 + 2 + 3 + 4 +

E |-----------------------------------------------------------------|
B |-----------------------------------------------------------------|
F#|-0-0-0-0-0-0-0-0-0-0-0-0-0-0-0-0---------------------------------|
B |---------------------------------3-3-3-3-3-3-3-3-6---------------|
    1 + 2 + 3 + 4 + 1 + 2 + 3 + 4 + 1 + 2 + 3 + 4 + 1 + 2 + 3 + 4 +

   Bridge
E |-----------------------------------------------------------------|
B |-----------------------------------------------------------------|
F#|-----------------------------------------------------------------|
B |-3---3---3---3---3---3---3---3---5---5---5---5---5---5---5---5-/-|
    1 + 2 + 3 + 4 + 1 + 2 + 3 + 4 + 1 + 2 + 3 + 4 + 1 + 2 + 3 + 4 +

E |-----------------------------------------------------------------|
B |-----------------------------------------------------------------|
F#|-----------------------------------------------------------------|
B |-14--14--14--14--14--14--14--14----------------------------------|
    1 + 2 + 3 + 4 + 1 + 2 + 3 + 4 + 1 + 2 + 3 + 4 + 1 + 2 + 3 + 4 +

E |-----------------------------------------------------------------|
B |-----------------------------------------------------------------|
F#|-------------------------0-------------------------------3---3---|
B |-3---3---3---3---3-\-------------5---5---5---5---5---5-----------|
    1 + 2 + 3 + 4 + 1 + 2 + 3 + 4 + 1 + 2 + 3 + 4 + 1 + 2 + 3 + 4 +

E |-----------------------------------------------------------------|
B |-----------------------------------------------------------------|
F#|-------------------------3---3---0---0---0---0-------------------|
B |-6---6---6---6---6---6---------------------------5---5---5---5---|
    1 + 2 + 3 + 4 + 1 + 2 + 3 + 4 + 1 + 2 + 3 + 4 + 1 + 2 + 3 + 4 +

E |-----------------------------------------------------------------|
B |-----------------------------------------------------------------|
F#|-----------------------------------------------------------------|
B |-3---------------------------------------------------------------|
    1 + 2 + 3 + 4 + 1 + 2 + 3 + 4 + 1 + 2 + 3 + 4 + 1 + 2 + 3 + 4 +

E |-----------------------------------------------------------------|
B |-----------------------------------------------------------------|
F#|-----------------------------------------------------------------|
B |-3---------------------------------------------------------------|
    1 + 2 + 3 + 4 + 1 + 2 + 3 + 4 + 1 + 2 + 3 + 4 + 1 + 2 + 3 + 4 +

Rest

   Chorus
E |-----------------------------------------------------------------|
B |-----------------------------------------------------------------|
F#|-----------------0-0-0-0-0-0-0-0-----3-3-2-2-0-0----/7---5---3---|
B |---------------------------------3---------------3---------------|
    1 + 2 + 3 + 4 + 1 + 2 + 3 + 4 + 1 + 2 + 3 + 4 + 1 + 2 + 3 + 4 +

E |-----------------------------------------------------------------|
B |-----------------------------------------------------------------|
F#|-0-0-0-0-0-0-0-0-0-0-0-0-0-0-0-0-8---8---8-8-8---7---------------|
B |-----------------------------------------------------3---3---5---|
    1 + 2 + 3 + 4 + 1 + 2 + 3 + 4 + 1 + 2 + 3 + 4 + 1 + 2 + 3 + 4 +

E |-----------------------------------------------------------------|
B |-----------------------------------------------------------------|
F#|-0-0-0-0-0-0-0-0-0-0-0-0-0-0-5-7-8-8-8-8-8-8-8-8-7---------------|
B |-----------------------------------------------------3---3---5---|
    1 + 2 + 3 + 4 + 1 + 2 + 3 + 4 + 1 + 2 + 3 + 4 + 1 + 2 + 3 + 4 +

E |-----------------------------------------------------------------|
B |-----------------------------------------------------------------|
F#|-0-0-0-0-0-0-0-0-0-0-0-0-0-0-0-0---------------------------------|
B |---------------------------------3-3-3-3-3-3-3-3-6-6-6-6-6-6-6-6-|
    1 + 2 + 3 + 4 + 1 + 2 + 3 + 4 + 1 + 2 + 3 + 4 + 1 + 2 + 3 + 4 +

E |-----------------------------------------------------------------|
B |-----------------------------------------------------------------|
F#|-----------------------------------------------------------------|
B |-3-3-3-3-3-3-3-3-6-6-6-6-6-6-6-6-3-3-3-3-3-3-3-3-6---------------|
    1 + 2 + 3 + 4 + 1 + 2 + 3 + 4 + 1 + 2 + 3 + 4 + 1 + 2 + 3 + 4 +

   Outro
E |-------------------------------------------------------------------|
B |o---2-----2-----2-----2-----2-2-2---0-----0-----0-----0-----0-----o|
F#|o-0---3-0---3-0---3-0---3-0-------2---3-2---3-2---3-2---3-2---3-2-o|
B |-------------------------------------------------------------------|
     1 + 2 + 3 + 4 + 1 + 2 + 3 + 4 + 1 + 2 + 3 + 4 + 1 + 2 + 3 + 4 +

E |-----------------------------------------------------------------|
B |---2-----2-----2-----2-----2-2-2---0-----0-----0-----------------|
F#|-0---3-0---3-0---3-0---3-0-------2---3-2---3-2-------------------|
B |-------------------------------------------------6---------------|
    1 + 2 + 3 + 4 + 1 + 2 + 3 + 4 + 1 + 2 + 3 + 4 + 1 + 2 + 3 + 4 +

E |-----------------------------------------------------------------|
B |-----------------------------------------------------------------|
F#|-----------------------------------------------------------------|
B |-7-------\-------------------------------------------------------|
    1 + 2 + 3 + 4 + 1 + 2 + 3 + 4 + 1 + 2 + 3 + 4 + 1 + 2 + 3 + 4 +

Tabbed By Jack Mills

=================================================================================================
5 String Standard
=================================================================================================

Tabbed By Jack Mills
Thanks to Dave Vucko for tabbing out the intro/1st verse! ^^

0:20 Intro
G|-------------------------------------------------------------------|
D|o-----------------------------------------------------------------o|
A|----4-0---4-0---4-0---4-0---4-4-4---2-0---2-0---2-0---2-0---2-0----|
E|o-2-----2-----2-----2-----2-------4-----4-----4-----4-----4-----4-o|
B|-------------------------------------------------------------------|
    1 + 2 + 3 + 4 + 1 + 2 + 3 + 4 + 1 + 2 + 3 + 4 + 1 + 2 + 3 + 4 + 

G|---------------------------------|
D|---------------------------------|
A|---------------------------------|
E|---------------------------------|
B|-7-------7-------7---\-----------|
   1 + 2 + 3 + 4 + 1 + 2 + 3 + 4 +

0:33 Verse
G|-----------------------------------------------------------------|
D|-----------------------------------------------------------------|
A|---------------------------------5-5-5-5-5-5-5-5-----------0-0-0-|
E|-2-22-22-2-22-22-2-22-22-2-22-22-----------------1-1-1-1-1-------|
B|-----------------------------------------------------------------|
   1 + 2 + 3 + 4 + 1 + 2 + 3 + 4 + 1 + 2 + 3 + 4 + 1 + 2 + 3 + 4 +

G|-----------------------------------------------------------------|
D|-----------------------------------------------------------------|
A|---------------------------------5-------5-----------------0-0-0-|
E|-2-22-22-2-22-22-2-22-22-2-22-22-----------------1-------1-------|
B|-----------------------------------------------------------------|
   1 + 2 + 3 + 4 + 1 + 2 + 3 + 4 + 1 + 2 + 3 + 4 + 1 + 2 + 3 + 4 +

0:43 Pre-Chorus
G|-----------------------------------------------------------------|
D|-----------------------------------------------------------------|
A|-----------------------------------------------------------------|
E|-2-22-22-2-22-22-2-22-22-2-22-22-----------------1-11-11-1-11-11-|
B|---------------------------------3-33-33-3-33-33-----------------|
   1 + 2 + 3 + 4 + 1 + 2 + 3 + 4 + 1 + 2 + 3 + 4 + 1 + 2 + 3 + 4 +

G|-----------------------------------------------------------------|
D|-----------------------------------------------------------------|
A|-----------------------------------------------------------------|
E|-2-22-22-2-22-22-2-22-22-2-22-22-1-11-11-1-11-11-2-2-2-2-2-2/12\-|
B|-----------------------------------------------------------------|
   1 + 2 + 3 + 4 + 1 + 2 + 3 + 4 + 1 + 2 + 3 + 4 + 1 + 2 + 3 + 4 +

0:53 Chorus
G|-----------------------------------------------------------------|
D|-----------------------------------------------------------------|
A|-----------------------------------------------------------------|
E|-2-2-2-2-2-2-2-2-2-2-2-2-2-2-2-2-----5-5-4-4-2-2----/9---7---5---|
B|---------------------------------3---------------3---------------|
   1 + 2 + 3 + 4 + 1 + 2 + 3 + 4 + 1 + 2 + 3 + 4 + 1 + 2 + 3 + 4 +

G|-----------------------------------------------------------------|
D|-----------------------------------------------------------------|
A|---------------------------------5---5---5-5-5---4---------------|
E|-2-2-2-2-2-2-2-2-2-2-2-2-2-2-2-2---------------------------------|
B|-----------------------------------------------------3---3---5---|
   1 + 2 + 3 + 4 + 1 + 2 + 3 + 4 + 1 + 2 + 3 + 4 + 1 + 2 + 3 + 4 +

G|-----------------------------------------------------------------|
D|-----------------------------------------------------------------|
A|-----------------------------2-4---5-5-5-5-5-5-5-4---------------|
E|-2-2-2-2-2-2-2-2-2-2-2-2-2-2-------------------------------------|
B|-----------------------------------------------------3---3---5---|
   1 + 2 + 3 + 4 + 1 + 2 + 3 + 4 + 1 + 2 + 3 + 4 + 1 + 2 + 3 + 4 +

G|-----------------------------------------------------------------|
D|-----------------------------------------------------------------|
A|-----------------------------------------------------------------|
E|-2-2-2-2-2-2-2-2-2-2-2-2-2-2-2-2-----------------1---------------|
B|---------------------------------3-3-3-3-3-3-3-3-----------------|
   1 + 2 + 3 + 4 + 1 + 2 + 3 + 4 + 1 + 2 + 3 + 4 + 1 + 2 + 3 + 4 +

1:13 Verse
G|-----------------------------------------------------------------|
D|-----------------------------------------------------------------|
A|-----------------------------------------------------------------|
E|-2-2---2-2-2---2-2-2---2-2-2---2-2-2---2-2-2---2-----------------|
B|-----------------------------------------------------------------|
   1 + 2 + 3 + 4 + 1 + 2 + 3 + 4 + 1 + 2 + 3 + 4 + 1 + 2 + 3 + 4 +

G|-----------------------------------------------------------------|
D|-----------------------------------------------------------------|
A|-----------------------------------------------------------------|
E|-2-2---2-2-2---2-2-2---2-2-2---2-----------------1---------------|
B|---------------------------------3-------------------------------|
   1 + 2 + 3 + 4 + 1 + 2 + 3 + 4 + 1 + 2 + 3 + 4 + 1 + 2 + 3 + 4 +

G|-----------------------------------------------------------------|
D|-----------------------------------------------------------------|
A|-----------------------------------------------------------------|
E|-2-------------------------------2-------------------------------|
B|-----------------------------------------------------------------|
   1 + 2 + 3 + 4 + 1 + 2 + 3 + 4 + 1 + 2 + 3 + 4 + 1 + 2 + 3 + 4 +

G|-----------------------------------------------------------------|
D|-----------------------------------------------------------------|
A|-----------------3-3-3-3-3-3-3-3---------------------------------|
E|-2-2---2-2-2---2-------------------------------------------------|
B|---------------------------------3---------------5---------------|
   1 + 2 + 3 + 4 + 1 + 2 + 3 + 4 + 1 + 2 + 3 + 4 + 1 + 2 + 3 + 4 +

G|---------------------------------|
D|---------------------------------|
A|---------------------------------|
E|---------------------------------|
B|-2---------------2-2-2-2-2-------|
   1 + 2 + 3 + 4 + 1 + 2 + 3 + 4 +

1:36 Chorus
G|-----------------------------------------------------------------|
D|-----------------------------------------------------------------|
A|-----------------------------------------------------------------|
E|-2-2-2-2-2-2-2-2-2-2-2-2-2-2-2-2-----5-5-4-4-2-2----/9---7---5---|
B|---------------------------------3---------------3---------------|
   1 + 2 + 3 + 4 + 1 + 2 + 3 + 4 + 1 + 2 + 3 + 4 + 1 + 2 + 3 + 4 +

G|-----------------------------------------------------------------|
D|-----------------------------------------------------------------|
A|---------------------------------5---5---5-5-5---4---------------|
E|-2-2-2-2-2-2-2-2-2-2-2-2-2-2-2-2---------------------------------|
B|-----------------------------------------------------3---3---5---|
   1 + 2 + 3 + 4 + 1 + 2 + 3 + 4 + 1 + 2 + 3 + 4 + 1 + 2 + 3 + 4 +

G|-----------------------------------------------------------------|
D|-----------------------------------------------------------------|
A|-----------------------------2-4---5-5-5-5-5-5-5-4---------------|
E|-2-2-2-2-2-2-2-2-2-2-2-2-2-2-------------------------------------|
B|-----------------------------------------------------3---3---5---|
   1 + 2 + 3 + 4 + 1 + 2 + 3 + 4 + 1 + 2 + 3 + 4 + 1 + 2 + 3 + 4 +

G|-----------------------------------------------------------------|
D|-----------------------------------------------------------------|
A|-----------------------------------------------------------------|
E|-2-2-2-2-2-2-2-2-2-2-2-2-2-2-2-2-----------------1---------------|
B|---------------------------------3-3-3-3-3-3-3-3-----------------|
   1 + 2 + 3 + 4 + 1 + 2 + 3 + 4 + 1 + 2 + 3 + 4 + 1 + 2 + 3 + 4 +

1:56 Bridge
G|-----------------------------------------------------------------|
D|-----------------------------------------------------------------|
A|-----------------------------------------------------------------|
E|-----------------------------------------------------------------|
B|-3---3---3---3---3---3---3---3---5---5---5---5---5---5---5---5-/-|
   1 + 2 + 3 + 4 + 1 + 2 + 3 + 4 + 1 + 2 + 3 + 4 + 1 + 2 + 3 + 4 +
 
G|-----------------------------------------------------------------|
D|-----------------------------------------------------------------|
A|-----------------------------------------------------------------|
E|-----------------------------------------------------------------|
B|-14--14--14--14--14--14--14--14----------------------------------|
   1 + 2 + 3 + 4 + 1 + 2 + 3 + 4 + 1 + 2 + 3 + 4 + 1 + 2 + 3 + 4 +

G|-----------------------------------------------------------------|
D|-----------------------------------------------------------------|
A|-----------------------------------------------------------------|
E|-------------------------2-------0---0---0---0---0---0---5---5---|
B|-3---3---3---3---3\----------------------------------------------|
   1 + 2 + 3 + 4 + 1 + 2 + 3 + 4 + 1 + 2 + 3 + 4 + 1 + 2 + 3 + 4 +

G|-----------------------------------------------------------------|
D|-----------------------------------------------------------------|
A|-----------------------------------------------------------------|
E|-1---1---1---1---1---1---5---5---2---2---2---2---0---0---0---0---|
B|-----------------------------------------------------------------|
   1 + 2 + 3 + 4 + 1 + 2 + 3 + 4 + 1 + 2 + 3 + 4 + 1 + 2 + 3 + 4 +

G|-----------------------------------------------------------------|
D|-----------------------------------------------------------------|
A|-----------------------------------------------------------------|
E|-----------------------------------------------------------------|
B|-3---------------------------------------------------------------|
   1 + 2 + 3 + 4 + 1 + 2 + 3 + 4 + 1 + 2 + 3 + 4 + 1 + 2 + 3 + 4 +

G|-----------------------------------------------------------------|
D|-----------------------------------------------------------------|
A|-----------------------------------------------------------------|
E|-----------------------------------------------------------------|
B|-3---------------------------------------------------------------|
   1 + 2 + 3 + 4 + 1 + 2 + 3 + 4 + 1 + 2 + 3 + 4 + 1 + 2 + 3 + 4 +

Rest

2:36 Chorus
G|-----------------------------------------------------------------|
D|-----------------------------------------------------------------|
A|-----------------------------------------------------------------|
E|-----------------2-2-2-2-2-2-2-2-----5-5-4-4-2-2----/9---7---5---|
B|---------------------------------3---------------3---------------|
   1 + 2 + 3 + 4 + 1 + 2 + 3 + 4 + 1 + 2 + 3 + 4 + 1 + 2 + 3 + 4 +

G|-----------------------------------------------------------------|
D|-----------------------------------------------------------------|
A|---------------------------------5---5---5-5-5---4---------------|
E|-2-2-2-2-2-2-2-2-2-2-2-2-2-2-2-2---------------------------------|
B|-----------------------------------------------------3---3---5---|
   1 + 2 + 3 + 4 + 1 + 2 + 3 + 4 + 1 + 2 + 3 + 4 + 1 + 2 + 3 + 4 +

G|-----------------------------------------------------------------|
D|-----------------------------------------------------------------|
A|-----------------------------2-4---5-5-5-5-5-5-5-4---------------|
E|-2-2-2-2-2-2-2-2-2-2-2-2-2-2-------------------------------------|
B|-----------------------------------------------------3---3---5---|
   1 + 2 + 3 + 4 + 1 + 2 + 3 + 4 + 1 + 2 + 3 + 4 + 1 + 2 + 3 + 4 +

G|-----------------------------------------------------------------|
D|-----------------------------------------------------------------|
A|-----------------------------------------------------------------|
E|-2-2-2-2-2-2-2-2-2-2-2-2-2-2-2-2-----------------1-1-1-1-1-1-1-1-|
B|---------------------------------3-3-3-3-3-3-3-3-----------------|
   1 + 2 + 3 + 4 + 1 + 2 + 3 + 4 + 1 + 2 + 3 + 4 + 1 + 2 + 3 + 4 +

G|-----------------------------------------------------------------|
D|-----------------------------------------------------------------|
A|-----------------------------------------------------------------|
E|-----------------1-1-1-1-1-1-1-1-----------------1---------------|
B|-3-3-3-3-3-3-3-3-----------------3-3-3-3-3-3-3-3-----------------|
   1 + 2 + 3 + 4 + 1 + 2 + 3 + 4 + 1 + 2 + 3 + 4 + 1 + 2 + 3 + 4 +

3:02 Outro
G|-------------------------------------------------------------------|
D|o-----------------------------------------------------------------o|
A|----4-0---4-0---4-0---4-0---4-4-4---2-0---2-0---2-0---2-0---2-0----|
E|o-2-----2-----2-----2-----2-------4-----4-----4-----4-----4-----4-o|
B|-------------------------------------------------------------------|x3
    1 + 2 + 3 + 4 + 1 + 2 + 3 + 4 + 1 + 2 + 3 + 4 + 1 + 2 + 3 + 4 + 

G|-----------------------------------------------------------------|
D|-----------------------------------------------------------------|
A|---4-0---4-0---4-0---4-0---4-4-4---2-0---2-0---2-----------------|
E|-2-----2-----2-----2-----2-------4-----4-----4---1---------------|
B|-----------------------------------------------------------------|
   1 + 2 + 3 + 4 + 1 + 2 + 3 + 4 + 1 + 2 + 3 + 4 + 1 + 2 + 3 + 4 + 

G|-----------------------------------------------------------------|
D|-----------------------------------------------------------------|
A|-----------------------------------------------------------------|
E|-2-------\-------------------------------------------------------|
B|-----------------------------------------------------------------|
   1 + 2 + 3 + 4 + 1 + 2 + 3 + 4 + 1 + 2 + 3 + 4 + 1 + 2 + 3 + 4 +

            
            
Suggest correction
Creating personal tab
Creating personal tab
You can edit any tab online and save it as your Personal.

You can edit, replace or remove any tab part or add personal notes – all changes will be seen only by you.

Personal tabs can be accessed anytime from any device, even offline.
Learn more »
Give kudos to tab author, rate the tab!
1 2 3 4 5
comments
print report bad tab
8 comments total. Showing first comments.
0 reply
stlavallee 116 Jun 04, 2013 06:52 AM

Can you try to tab it in an actual tuning not with a low B and everything else standard

+2 reply
XxThreeCheersxX 13,177 Jun 23, 2013 03:40 PM

This IS an actual tuning. This is how five-string basses are tuned: B E A D G. The tuning is used by people who don't have a five-string bass. I think this is a pretty accurate tab, good job.

0 reply
JackMills 6,147 Jun 24, 2013 12:43 AM

Thank you ^^

guest
You may want to rate the tab now too:
select rating
Wanna post a correction for this tab? Suggest correction