Oops, an error
Loading. Please wait.

The New National Anthem Tab

version 2
version 2

Intro

  • Capo added for ease of play. Includes first strummed chord.

Whole song

Interactive

79 views 1 this week
no commentswrite comment
1 2 3 4 5
3 more votes to show rating
add to favorites
launch autoscroll
font size
0
reset
how to read this tab
guitar tuner
×
Best way to learn
"The New National Anthem"
Autoscroll
slow
fast
+/-
esc
set tempo
stop
Author
Difficulty
Capo
  follow
novice
1st fret
About this tab version
Capo added for ease of play. Includes first strummed chord. Was this info helpful? Yes No
The New National Anthem - Pierce the Veil

Tabs written relative to top of neck, not capo

[Intro]

e|-------8-10-11-10-8----------|-------1-6-8-6------------------|
B|---1-8--------------8-9/11---|---------------9-8-9-8-6--------|
G|-----------------------------|-----3-------------------8-7----|
D|-----------------------------|--------------------------------|
A|-----------------------------|--------------------------------|
E|-----------------------------|--------------------------------|

e|-------8-10-11-10-8---13/15--|
B|---1-8--------------8--------|
G|-----------------------------|
D|-----------------------------|
A|-----------------------------|
E|-----------------------------|
                                    up strum
e|--6-----6------3-------8-----|-------1-----------------|
B|--6-------6----3---------8---|-------1-----------------|
G|--7------------4-------------|-------1-----------------|
D|-----------------------------|-------3-----------------|
A|-----------------------------|-------3-----------------|
E|-----------------------------|-------1-----------------|

/ - slide up
Suggest correction
Give kudos to tab author, rate the tab!
1 2 3 4 5
comments
print report bad tab
guest
You may want to rate the tab now too:
select rating
Wanna post a correction for this tab? Suggest correction