Oops, an error
Loading. Please wait.

Today I Saw The Whole World Acoustic chords

version 1
version 1

Whole song

Interactive

10,957 views 27 this week
6 commentsread comments
1 2 3 4 5
x 8
add to favorites
×
Save as Personal and add changes to this tab that will be seen only by you. Learn more ›
×
You can save this tab as Personal to edit and correct it or add notes. All changes will be seen only by you. Learn more »
launch autoscroll
font size
0
reset
transpose
0
reset
simplify chords
display chords
guitar tuner
edit
Autoscroll
slow
fast
+/-
esc
set tempo
stop
Author
Difficulty
Strumming
There is no strumming pattern for this song yet. and get +5 IQ
The second bonus track from the Misadventures Deluxe edition.

I'm open to any suggestions.

Voicings:

e|------1-----0--------------------|
B|------3-----1-----3--------------|
G|------2-----2-----2--------------|
D|------0-----2-----3--------------|
A|------------3-----1------6----5--|
E|-------------------------4----3--|
        Dm  Fmaj7 Bbmaj7   G#5  G5

[Intro]

e|----------------------------|----------------------------|
B|----------------------------|----------------------------|
G|-----------2----------------|-----------2----------------|
D|-----3-----------3-----3----|-----3-----------3-----3----|
A|--5-----5-----------5-------|--3-----3-----------3-------|
E|----------------------------|----------------------------|


e|----------------------------|----------------------------|
B|-----------------------1L---|--1--1----------------------|
G|-----------2----------------|-----------2-----2----------|
D|-----3-----------3----------|--------3-----------0--3----|
A|--1-----1-----------1-------|----------------------------|
E|----------------------------|----------------------------|


e|----------------------------|----------------------------|
B|----------------------------|----------------------------|
G|-----------2----------------|-----------2----------------|
D|-----3-----------3-----3----|-----3-----------3-----3----|
A|--5-----5-----------5-------|--3-----3-----------3-------|
E|----------------------------|----------------------------|


e|----------------------------|----------------------------|
B|-----------------------1L---|--1--1----------------------|
G|-----------2----------------|-----------2-----2----------|
D|-----3-----------3----------|--------3-----------0--3----|
A|--1-----1-----------1-------|----------------------------|
E|----------------------------|----------------------------|


[Verse 1]

Dm Fmaj7
Baby, pour over
                Bbmaj7
Tell me, are we concrete?
                             Dm            Fmaj7               Bbmaj7
What would you do without my perfect company to your undressed spine?
                   Dm             Fmaj7              Bbmaj7
And I can hear you drag behind my car by your broken legs

       Dm            Fmaj7             Bbmaj7        Bbmaj7
As she stole my only view, may I never blink


[Chorus]

                         Dm
While you stood over the pavement
                 Fmaj7
I was biting the curb
           Bbmaj7
Sick entertainment
                                                     Dm
But I'll bet it feels good when you're coming down
              Fmaj7                   Bbmaj7
Can't bear to wash out the wasted time

Between your lips and mine


[Interlude]


e|----------------------------|----------------------------|
B|----------------------------|----------------------------|
G|-----------2----------------|-----------2----------------|
D|-----3-----------3-----3----|-----3-----------3-----3----|
A|--5-----5-----5-----5-------|--5-----5-----5-----5-------|
E|----------------------------|----------------------------|


[Verse 2]

      Dm
Zero friends
                                   Bbmaj7
Followed your voices into a sea of crosses
                             Dm                  Fmaj7
She blends in with the foxes gold and feels like home
                   Bbmaj7
Under the surface, my love
     Dm
But beware, beware, beware
Fmaj7            Bbmaj7
And take it slow tonight
                               Dm    Fmaj7
We're on the other side of the road
                       Bbmaj7
I think we're bleeding out


[Chorus 2]

                         Dm
While you stood over the pavement
                 Fmaj7
I was biting the curb
           Bbmaj7
Sick entertainment
                                                     Dm
But I'll bet it feels good when you're coming down
              Fmaj7                   Bbmaj7
Can't bear to wash out the wasted time

Between our lips
                      Dm                  Fmaj7
So c'mon and swing it back and forth just like
                 Bbmaj7               Dm
My heart is on a pendulum tonight
                 Fmaj7             Bbmaj7
See I only wanna watch your clouds linger in the dark


[Verse 3]

Bbmaj7                   Fmaj7
Oh, can't you feel it?

You're feeding on my restless soul
Bbmaj7                   Fmaj7
Oh, can't you see that

It's never enough, it's never enough
Bbmaj7                   Fmaj7
Oh, can't you feel it?
                        G#5 G5
You feed on my restless soul
Bbmaj7                   Fmaj7
Oh, can't you see that

It's never enough, it's never enough


[Interlude 2]

Bbmaj7 Fmaj7 G#5 G5 x2


[Verse 4]

Bbmaj7
Today I saw the whole world
                         Fmaj7                 G#5
And I think heaven has a plot to take my life
G5                 Bbmaj7
See I'm the one who made you

I'll be the one who brings you down
    Fmaj7
But this will be the last time


[Chorus]

Dm     Fmaj7
                  Bbmaj7
Oh your sick entertainment
                                                     Dm
But I'll bet it feels good when you're coming down
              Fmaj7                   Bbmaj7
Can't bear to wash out the wasted time

Between our lips
                      Dm                  Fmaj7
So c'mon and swing it back and forth just like
                 Bbmaj7               Dm
My heart is on a pendulum tonight
                 Fmaj7             Bbmaj7
See I only wanna watch your clouds linger in the darkness.


[Outro]

e|----------------------------|----------------------------|
B|----------------------------|----------------------------|
G|-----------2----------------|-----------2----------------|
D|-----3-----------3-----3----|-----3-----------3-----3----|
A|--5-----5-----------5-------|--3-----3-----------3-------|
E|----------------------------|----------------------------|


e|----------------------------|----------------------------|
B|-----------------------1L---|--1--1----------------------|
G|-----------2----------------|-----------2-----2----------|
D|-----3-----------3----------|--------3-----------0--3----|
A|--1-----1-----------1-------|----------------------------|
E|----------------------------|----------------------------|


e|----------------------------|----------------------------|
B|----------------------------|----------------------------|
G|-----------2----------------|-----------2----------------|
D|-----3-----------3-----3----|-----3-----------3-----3----|
A|--5-----5-----------5-------|--3-----3-----------3-------|
E|----------------------------|----------------------------|


e|----------------------------|----------------------------|
B|-----------------------1L---|--1--1----------------------|
G|-----------2----------------|-----------2-----2----------|
D|-----3-----------3----------|--------3-----------0--3----|
A|--1-----1-----------1-------|----------------------------|
E|----------------------------|----------------------------|

            
            
Suggest correction
Creating personal tab
Creating personal tab
You can edit any tab online and save it as your Personal.

You can edit, replace or remove any tab part or add personal notes – all changes will be seen only by you.

Personal tabs can be accessed anytime from any device, even offline.
Learn more »
comments
print report bad tab
6 comments total. Showing first comments.
+1 reply
Huskah 41 Jul 05, 2016 02:50 PM

Whole Step down from Standard Tuning
DGCFAD

[Intro]
D|----------------------------|----------------------------|
A|-----------0----------------|--------0-------------------|
F|----------------------------|----------------------------|
C|-----5-----------5-----5----|----4--------4----4---------|
G|--7-----7----7------7-------|--5---5---5----5------------|
D|----------------------------|----------------------------|

D|----------------------------|----------------------------|
A|-----------0-----------3---3|----0-----------------------|
F|-----------------0----------|--------2---2---------------|
C|-----2----------------------|----------3-----------------|
G|--3-----3----3------3----3--|--3---3---------------------|
D|----------------------------|----------------------------|

D|----------------------------|----------------------------|
A|-----------0----------------|--------0-------------------|
F|----------------------------|----------------------------|
C|-----5-----------5-----5----|----4--------4----4---------|
G|--7-----7----7------7-------|--5---5---5----5------------|
D|----------------------------|----------------------------|

D|----------------------------|----------------------------|
A|-----------0-----------3---3|--3-3-0-0-0-0-0-------------|
F|-----------------0-----0---0|--0-0-0-0-0-0-0-------------|
C|-----2-----------------2---2|--2-2-2-2-2-2-2-------------|
G|--3-----3----3------3--3---3|--3-3-3-3-3-3-3-------------|
D|----------------------------|----------------------------|

[Verse 1] Baby pour over (Just the chords, listen to song for strum pattern)
D|----------------------------|----------------------------|
A|--0-----0-----0-------------|--0-------0----0------------|
F|--0-----0-----0-------------|--0-------0----0------------|
C|--5-----4-----2-------------|--5-------4----2------------|
G|--7-----5-----3-------------|--7-------5----3------------|
D|----------------------------|----------------------------|
Repeat (x2)

[Chorus] (Same chords and Verse 1)
D|----------------------------|----------------------------|
A|--0-----0-----0-------------|--0-------0----0------------|
F|--0-----0-----0-------------|--0-------0----0------------|
C|--5-----4-----2-------------|--5-------4----2------------|
G|--7-----5-----3-------------|--7-------5----3------------|
D|----------------------------|----------------------------|

[Verse 2]
D|----------------------------|----------------------------|
A|-----------0-----------0---0|--0-0-0-0-0-0---------------|
F|-----------------------0---0|--0-0-0-0-0-0---------------|
C|-----5--------5---5----5---5|--5-5-5-5-5-5---------------|
G|--7-----7-------7------7---7|--7-7-7-7-7-7---------------|
D|----------------------------|----------------------------|
Zero Friends
D|----------------------------|----------------------------|
A|--0-----0-----0-------------|--0-------0----0------------|
F|--0-----0-----0-------------|--0-------0----0------------|
C|--5-----4-----2-------------|--5-------4----2------------|
G|--7-----5-----3-------------|--7-------5----3------------|
D|----------------------------|----------------------------|
Repeat (x2)
Beware Beware Beware
D|----------------------------|----------------------------|
A|--0-----0-----0-------------|--0-------0----0------------|
F|--0-----0-----0-------------|--0-------0----0------------|
C|--5-----4-----2-------------|--5-------4----2------------|
G|--7-----5-----3-------------|--7-------5----3------------|
D|---(x4)--(x4)----(x4)-------|----------------------------|
I think were bleeding out
D|----------------------------|----------------------------|
A|-----------0-----------0---0|--0-0-0-0-0-0--0------------|
F|-----------------------0---0|--0-0-0-0-0-0--0------------|
C|-----5--------5---5----4---4|--4-4-4-4-4-4--2------------|
G|--7-----7-------7------5---5|--5-5-5-5-5-5--3------------|
D|----------------------------|----------------------------|

[Chorus 2]
D|----------------------------|----------------------------|
A|--0-----0-----0-------------|--0-------0----0------------|
F|--0-----0-----0-------------|--0-------0----0------------|
C|--5-----4-----2-------------|--5-------4----2------------|
G|--7-----5-----3-------------|--7-------5----3------------|
D|----------------------------|----------------------------|
Repeat (x4)

[Verse 3] Oh, Can't you feel it
D|----------------------------|----------------------------|
A|--0-----0-----0-------------|--0-------0-----------------|
F|--5-----0-----0-------------|--5-------0-----------------|
C|--5-----5-----5-------------|--5-------2-----------------|
G|--3-----7-----4-------------|--3-------2-----------------|
D|----------------------------|----------------------------|

[Interlude]
D|----------------------------|----------------------------|
A|--0-----0-----0-------------|--0-------0--0--------------|
F|--5-----0-----0-------------|--5-------0--0--------------|
C|--5-----5-----5-------------|--5-------5--5--------------|
G|--3-----7-----4-------------|--3-------7-

guest
You may want to rate the tab now too:
select rating
Wanna post a correction for this tab? Suggest correction