Oops, an error
Loading. Please wait.

Today I Saw The Whole World Acoustic chords

version 3
version 3

Whole song

Interactive

2,134 views 24 this week
no commentswrite comment
1 2 3 4 5
x 4
add to favorites
×
Save as Personal and add changes to this tab that will be seen only by you. Learn more ›
×
You can save this tab as Personal to edit and correct it or add notes. All changes will be seen only by you. Learn more »
launch autoscroll
font size
0
reset
transpose
0
reset
display chords
guitar tuner
edit
Autoscroll
slow
fast
+/-
esc
set tempo
stop
Author
Strumming
There is no strumming pattern for this song yet. and get +5 IQ
Pierce The Veil - 'Today I Saw The Whole World (Acoustic Version)'
Misadventures

[Chords]:

    Bb           Abm           Ab

e|-6-------  e|-4-------  e|-4-------
B|-6-------  B|-4-------  B|-4-------
G|-6--7----  G|-4-------  G|-4--5----
D|-6----8--  D|-4----6--  D|-4----6--
A|-6----8--  A|-4----6--  A|-4----6--
E|-6-------  E|-4-------  E|-4-------

[Intro]

e|----------------------------|----------------------------|
B|----------------------------|----------------------------|
G|-----------2----------------|-----------2----------------|
D|-----3-----------3-----3----|-----3-----------3-----3----|
A|--5-----5-----------5-------|--3-----3-----------3-------|
E|----------------------------|----------------------------|


e|----------------------------|----------------------------|
B|-----------------------1L---|--1--1----------------------|
G|-----------2----------------|-----------2-----2----------|
D|-----3-----------3----------|--------3-----------0--3----|
A|--1-----1-----------1-------|----------------------------|
E|----------------------------|----------------------------|


e|----------------------------|----------------------------|
B|----------------------------|----------------------------|
G|-----------2----------------|-----------2----------------|
D|-----3-----------3-----3----|-----3-----------3-----3----|
A|--5-----5-----------5-------|--3-----3-----------3-------|
E|----------------------------|----------------------------|


e|----------------------------|----------------------------|
B|-----------------------1L---|--1--1----------------------|
G|-----------2----------------|-----------2-----2----------|
D|-----3-----------3----------|--------3-----------0--3----|
A|--1-----1-----------1-------|----------------------------|
E|----------------------------|----------------------------|

[Verse]

Dm    C
Baby, pour over
                Gm
Tell me, are we concrete?
                             Dm              C                 Gm
What would you do without my perfect company to your undressed spine?
                   Dm             C                  F    Bb
And I can hear you drag behind my car by your broken legs
Gm         Dm                  C           Bb
And as she stole my only view, may I never blink

[Chorus]

                         Dm
While you stood over the pavement
                 C
I was biting the curb
          Gm      
Sick entertainment
                                       Dm
But I'll bet it feels good coming down
                   C              Bb
Can't bear to wash out the wasted time
                      F
Between your lips and mine

Oh!

[Interlude]

e|----------------------------|----------------------------|
B|----------------------------|----------------------------|
G|-----------2----------------|-----------2----------------|
D|-----3-----------3-----3----|-----3-----------3-----3----|
A|--5-----5-----5-----5-------|--5-----5-----5-----5-------|
E|----------------------------|----------------------------|

[Verse]

     C
Zero friends
                            Gm
Followed your voices into a sea of crosses
                             Dm                  C
She blends in with the foxes gold and feels like home
                   Bb
Under the surface, my love
    Dm
But beware, beware, beware
C                Bb
And take it slow tonight
             Gm                  Dm
We're on the other side of the road
C                      Gm
I think we're bleeding out

[Chorus]

                         Dm
While you stood over the pavement
                 C
I was biting the curb
          Gm
Sick entertainment
                                     Dm
But I'll bet it feels good coming down
           C                      Bb
Can't bear to wash out the wasted time
            Gm
Between our lips
                      Dm                   C
So c'mon and swing it back and forth just like
                 Bb               Dm
My heart is on a pendulum tonight
                     C                 Gm            Bb
You see I only wanna watch your clouds linger in the dark

[Bridge]

F

F                      D
Oh, can't you feel it?
       E             A            F
You're feeding on my restless soul
    F                  D
Oh, can't you see that
     E     D                         F#m
It's never enough, it's never enough
    A                  D
Oh, can't you feel it?
               D        Abm Gm  F#m
You feed on my restless soul
    F#m         Dm
Oh, can you see that

It's never enough, it's never enough

Bbm    F    D    Ab    Gm
Dm     F    D    Ab    Gm

F 
Today I saw the whole world
                         Dm              Abm
And I think heaven has a plot to take my life
     Gm              Bb
See, I'm the one who made you
                    F
I'll be the one who brings you down
    Dm                         C
But this will be the last time 

[Chorus]

Dm

C                  Gm
Oh, your sick entertainment
                                                  Dm
But, I'll bet it feels good when you're coming down
              C                   Gm
Can't bear to wash out the wasted time
            Gm
Between our lips
                  Dm                  C
So c'mon swing it back and forth just like
                 Bb
My heart is on a pendulum tonight
D                     C                 Gm              Bb
You see, I only wanna watch your clouds linger in the darkness

[Outro]

e|----------------------------|----------------------------|
B|----------------------------|----------------------------|
G|-----------2----------------|-----------2----------------|
D|-----3-----------3-----3----|-----3-----------3-----3----|
A|--5-----5-----------5-------|--3-----3-----------3-------|
E|----------------------------|----------------------------|


e|----------------------------|----------------------------|
B|-----------------------1L---|--1--1----------------------|
G|-----------2----------------|-----------2-----2----------|
D|-----3-----------3----------|--------3-----------0--3----|
A|--1-----1-----------1-------|----------------------------|
E|----------------------------|----------------------------|


e|----------------------------|----------------------------|
B|----------------------------|----------------------------|
G|-----------2----------------|-----------2----------------|
D|-----3-----------3-----3----|-----3-----------3-----3----|
A|--5-----5-----------5-------|--3-----3-----------3-------|
E|----------------------------|----------------------------|


e|----------------------------|----------------------------|
B|-----------------------1L---|--1--1----------------------|
G|-----------2----------------|-----------2-----2----------|
D|-----3-----------3----------|--------3-----------0--3----|
A|--1-----1-----------1-------|----------------------------|
E|----------------------------|----------------------------|

            
            
Suggest correction
Creating personal tab
Creating personal tab
You can edit any tab online and save it as your Personal.

You can edit, replace or remove any tab part or add personal notes – all changes will be seen only by you.

Personal tabs can be accessed anytime from any device, even offline.
Learn more »
comments
print report bad tab
guest
You may want to rate the tab now too:
select rating
Wanna post a correction for this tab? Suggest correction