Oops, an error
Loading. Please wait.

Today I Saw The Whole World Acoustic tab

version 3
version 3

Whole song

Interactive

4,594 views 459 this week
1 commentread comment
1 2 3 4 5
x 8
add to favorites
×
Save as Personal and add changes to this tab that will be seen only by you. Learn more ›
×
You can save this tab as Personal to edit and correct it or add notes. All changes will be seen only by you. Learn more »
launch autoscroll
font size
0
reset
how to read this tab
guitar tuner
edit
Autoscroll
slow
fast
+/-
esc
set tempo
stop
https://www.youtube.com/watch?v=rDnqEsycRz4


Whole Step down from Standard Tuning
DGCFAD

[Intro]
D|----------------------------|----------------------------|
A|-----------0----------------|--------0-------------------|
F|----------------------------|----------------------------|
C|-----5-----------5-----5----|----4--------4----4---------|
G|--7-----7----7------7-------|--5---5---5----5------------|
D|----------------------------|----------------------------|

D|----------------------------|----------------------------|
A|-----------0-----------3---3|----0-----------------------|
F|-----------------0----------|--------2---2---------------|
C|-----2----------------------|----------3-----------------|
G|--3-----3----3------3----3--|--3---3---------------------|
D|----------------------------|----------------------------|

D|----------------------------|----------------------------|
A|-----------0----------------|--------0-------------------|
F|----------------------------|----------------------------|
C|-----5-----------5-----5----|----4--------4----4---------|
G|--7-----7----7------7-------|--5---5---5----5------------|
D|----------------------------|----------------------------|

D|----------------------------|----------------------------|
A|-----------0-----------3---3|--3-3-0-0-0-0-0-------------|
F|-----------------0-----0---0|--0-0-0-0-0-0-0-------------|
C|-----2-----------------2---2|--2-2-2-2-2-2-2-------------|
G|--3-----3----3------3--3---3|--3-3-3-3-3-3-3-------------|
D|----------------------------|----------------------------|


[Verse 1] Baby pour over (Just the chords, listen to song for strum pattern)
D|----------------------------|----------------------------|
A|--0-----0-----0-------------|--0-------0----0------------|
F|--0-----0-----0-------------|--0-------0----0------------|
C|--5-----4-----2-------------|--5-------4----2------------|
G|--7-----5-----3-------------|--7-------5----3------------|
D|----------------------------|----------------------------|
Repeat (x2)

[Chorus]  (Same chords and Verse 1)
D|----------------------------|----------------------------|
A|--0-----0-----0-------------|--0-------0----0------------|
F|--0-----0-----0-------------|--0-------0----0------------|
C|--5-----4-----2-------------|--5-------4----2------------|
G|--7-----5-----3-------------|--7-------5----3------------|
D|----------------------------|----------------------------|

[Verse 2]  
D|----------------------------|----------------------------|
A|-----------0-----------0---0|--0-0-0-0-0-0---------------|
F|-----------------------0---0|--0-0-0-0-0-0---------------|
C|-----5--------5---5----5---5|--5-5-5-5-5-5---------------|
G|--7-----7-------7------7---7|--7-7-7-7-7-7---------------|
D|----------------------------|----------------------------|
        Zero Friends
D|----------------------------|----------------------------|
A|--0-----0-----0-------------|--0-------0----0------------|
F|--0-----0-----0-------------|--0-------0----0------------|
C|--5-----4-----2-------------|--5-------4----2------------|
G|--7-----5-----3-------------|--7-------5----3------------|
D|----------------------------|----------------------------|
Repeat (x2)
        Beware Beware Beware
D|----------------------------|----------------------------|
A|--0-----0-----0-------------|--0-------0----0------------|
F|--0-----0-----0-------------|--0-------0----0------------|
C|--5-----4-----2-------------|--5-------4----2------------|
G|--7-----5-----3-------------|--7-------5----3------------|
D|---(x4)--(x4)----(x4)-------|----------------------------|
        I think were bleeding out
D|----------------------------|----------------------------|
A|-----------0-----------0---0|--0-0-0-0-0-0--0------------|
F|-----------------------0---0|--0-0-0-0-0-0--0------------|
C|-----5--------5---5----4---4|--4-4-4-4-4-4--2------------|
G|--7-----7-------7------5---5|--5-5-5-5-5-5--3------------|
D|----------------------------|----------------------------|

[Chorus 2]
D|----------------------------|----------------------------|
A|--0-----0-----0-------------|--0-------0----0------------|
F|--0-----0-----0-------------|--0-------0----0------------|
C|--5-----4-----2-------------|--5-------4----2------------|
G|--7-----5-----3-------------|--7-------5----3------------|
D|----------------------------|----------------------------|
Repeat (x4)

[Verse 3] Oh, Can't you feel it
D|----------------------------|----------------------------|
A|--0-----0-----0-------------|--0-------0-----------------|
F|--5-----0-----0-------------|--5-------0-----------------|
C|--5-----5-----5-------------|--5-------2-----------------|
G|--3-----7-----4-------------|--3-------2-----------------|
D|----------------------------|----------------------------|

[Interlude]
D|----------------------------|----------------------------|
A|--0-----0-----0-------------|--0-------0--0--------------|
F|--5-----0-----0-------------|--5-------0--0--------------|
C|--5-----5-----5-------------|--5-------5--5--------------|
G|--3-----7-----4-------------|--3-------7--4--------------|
D|----------------------------|----------------------------|

[Verse 4]  Today I saw the whole world
D|----------------------------|----------------------------|
A|--0-----0-----0-------------|--0-------0-----------------|
F|--5-----0-----0-------------|--5-------0-----------------|
C|--5-----5-----5-------------|--5-------2-----------------|
G|--3-----7-----4-------------|--3-------2-----------------|
D|----------------------------|----------------------------|

[Chorus 3]
D|----------------------------|----------------------------|
A|--0-----0-----0-------------|--0-------0----0------------|
F|--0-----0-----0-------------|--0-------0----0------------|
C|--5-----4-----2-------------|--5-------4----2------------|
G|--7-----5-----3-------------|--7-------5----3------------|
D|----------------------------|----------------------------|
Repeat (x4)










[Verse]

Baby, pour over
Tell me, are we concrete?
What would you do without my perfect company to your undressed spine?
And I can hear you drag behind my car by your broken legs
Swallowing stitches in her sleep
As she stole my only view, may I never blink

[Chorus]

While you stood over the pavement
I was biting the curb
Sick entertainment
But I'll bet it feels good coming down
Can't bear to wash out the wasted time
Between your lips and mine

[Verse]

Zero friends
Followed your voices into a sea of crosses
She blends in with the foxes gold and feels like home
Under the surface, my love
But beware, beware, beware
And take it slow tonight
We're on the other side of the road
I think we're bleeding out

[Chorus]

While you stood over the pavement
I was biting the curb
Sick entertainment
But I'll bet it feels good coming down
Can't bear to wash out the wasted time
Between our lips
So c'mon and swing it back and forth just like
My heart is on a pendulum tonight
If your lungs are mine I only wanna watch your clouds linger in the darkness

[Bridge]

Oh, can't you feel it?
You're feeding on my restless soul
Oh, can't you see that
It's never enough, it's never enough
Oh, can't you feel it?
You feed on my restless soul
Oh, can you see that
It's never enough, it's never enough

Today I saw the whole world
And I think heaven has a plot to take my life
Listen, I'm the one who made you
I'll be the one who brings you down
But this will be the last time 

[Chorus]

Bite on the curb
Sick entertainment
Oh, I'll bet it feels good when you're coming down
Can't bear to wash out the wasted time
Between our lips
So c'mon swing it back and forth just like
My heart is on a pendulum tonight
If your lungs are mine
I only wanna watch your clouds linger in the darkness

[Outro]

Sing it one more time

            
            
Suggest correction
Creating personal tab
Creating personal tab
You can edit any tab online and save it as your Personal.

You can edit, replace or remove any tab part or add personal notes – all changes will be seen only by you.

Personal tabs can be accessed anytime from any device, even offline.
Learn more »
comments
print report bad tab
1 comment total.
0 reply
ikilledkennie 20 May 16, 2017 12:36 PM

The tab is awesome! Especially appreciate the lyrics at the bottom!

guest
You may want to rate the tab now too:
select rating
Wanna post a correction for this tab? Suggest correction