Oops, an error
Loading. Please wait.

Today I Saw The Whole World Acoustic chords

version 4
version 4

Whole song

Interactive

2,134 views 84 this week
3 commentsread comments
1 2 3 4 5
x 6
add to favorites
×
Save as Personal and add changes to this tab that will be seen only by you. Learn more ›
×
You can save this tab as Personal to edit and correct it or add notes. All changes will be seen only by you. Learn more »
launch autoscroll
font size
0
reset
transpose
0
reset
simplify chords
display chords
guitar tuner
edit
Autoscroll
slow
fast
+/-
esc
set tempo
stop
Strumming
There is no strumming pattern for this song yet. and get +5 IQ
I have nothing against the tabs already posted, but this version is much easier and exactly how Vic plays it
:) Created by ear/sight from this video, in case you want to play along: 
https://www.youtube.com/watch?v=rDnqEsycRz4


      Em*   Em9  Cmaj7* Em   Cmaj7  Em6  Cadd9
E|-----------------------------------------------|
B|-----------------------------------------3-----|
G|-----------------------------5-----4-----0-----|
D|-----5-----4-----2-----2-----5-----5-----2-----|
A|-----7-----5-----3-----2-----3-----4-----3-----|
E|-----------------------------------------------|




[Intro]

   Em*                        Em9                        Cmaj7*
E|--------------------------|--------------------------|--------------------------------------------------|
B|-----------0--------------|-----------0--------------|-----------0-----------3-----3-----0--------------|
G|-----------------0-----0--|-----------------0-----0--|-----0-----------0-----------------------0-----0--|
D|-----5--------------------|-----4--------------------|--------------------------------------------------| x2
A|--7-----7-----7-----7-----|--5-----5-----5-----5-----|--3-----3-----3-----3-----3-----3-----3-----3-----|
E|--------------------------|--------------------------|--------------------------------------------------|

[Verse 1]

Em* Em9
Baby, pour over
               Cmaj7*
Tell me, are we concrete?
                            Em*           Em9                 Cmaj7*
What would you do without my perfect company to your undressed spine?
                  Em*            Em9                Cmaj7*
And I can hear you drag behind my car by your broken legs
      Em*           Em9               Cmaj7*
As she stole my only view, may I never blink


[Chorus]

                            Em*
While you stood over the pavement
                 Em9
I was biting the curb
          Cmaj7*
Sick entertainment
                                       Em*
But I'll bet it feels good coming down
             Em9                  Cmaj7*
Can't bear to wash out the wasted time

Between your lips and mine


[Interlude]

   Em*
E|--------------------------|
B|-----------0--------------|
G|-----------------0-----0--|
D|-----5--------------------| x2
A|--7-----7-----7-----7-----|
E|--------------------------| 


[Verse 2]

Em* Em9
Zero friends
                            Cmaj7*
Followed your voices into a sea of crosses
                             Em*                 Em9
She blends in with the foxes gold and feels like home
                  Cmaj7*
Under the surface, my love
   Em*                     Em9
But beware, beware, beware
                 Cmaj7*
And take it slow tonight
                                   Em*            Em9
                                E|-----------0--|--------------
                                B|--------0-----|-----------0--
                                G|--------------|--------0-----
                                D|-----5--------|-----4--------
                                A|--7-----------|--5-----------
                                E|--------------|--------------          Cmaj7*
We're on the other side of the road               And I think we're bleeding out


[Chorus 2]


                            Em*
While you stood over the pavement
                 Em9
I was biting the curb
          Cmaj7*
Sick entertainment
                                       Em*
But I'll bet it feels good coming down
             Em9                  Cmaj7*
Can't bear to wash out the wasted time

Between our lips
                      Em                  Em9
So c'mon and swing it back and forth just like
                 Cmaj7*          
My heart is on a pendulum tonight
Em                      Em9              Cmaj7*              Cadd9
   You see, I only wanna watch your clouds linger in the dark


[Verse 3]

Cmaj7                     Em*
    Oh, can't you feel it?
                     Em6
You're feeding on my restless soul
Cmaj7                      Em*
    Oh, can't you see that
                  Em6
It's never enough, it's never enough
Cmaj7                      Em*
    Oh, can't you feel it?
               Em6
You feed on my restless soul
Cmaj7                    Em
    Oh, can you see that

It's never enough, it's never enough


[Interlude 2]

Cmaj7 Em* Em6 x2


[Verse 4]

Cmaj7
Today I saw the whole world
                 Em*              Em6
And heaven has a plot to take my life
                    Cmaj7
See I'm the one who made you

I'll be the one who brings you down
    Em
But this will be the last time


[Chorus]
Em*   Em9              Cmaj7*
        Your sick entertainment
                                           Em*
But I'll bet it feels good coming down
              Em9                 Cmaj7*
Can't bear to wash out the wasted time

Between our lips
                      Em                  Em9
So c'mon and swing it back and forth just like
                 Cmaj7*
My heart is on a pendulum tonight
Em                       Em9               Cmaj7*                Em
   You see, I only wanna watch your clouds linger in the dark 




            
            
Suggest correction
Creating personal tab
Creating personal tab
You can edit any tab online and save it as your Personal.

You can edit, replace or remove any tab part or add personal notes – all changes will be seen only by you.

Personal tabs can be accessed anytime from any device, even offline.
Learn more »
comments
print report bad tab
3 comments total.
0 reply
nicolascage_ 10 Jun 30, 2016 10:07 PM

YESSSSSSSSSSSS

0 reply
tyradatt 162 Jul 15, 2016 06:47 PM

should the tuning be CGCFAD to match the video?

-1 reply
arcade999 20 Dec 08, 2016 08:04 AM

For the E9 in the intro it should be

E|--------------------------|
B|-----------0--------------|
G|-----------------0-----0--|
D|-----5--------------------|
A|--5-----5-----5-----5-----|
E|--------------------------|

guest
You may want to rate the tab now too:
select rating
Wanna post a correction for this tab? Suggest correction