Oops, an error
Loading. Please wait.

Yeah Boy And Doll Face Bass Tab

version 1
version 1

Whole song

Interactive

8,266 views 1 this week
1 commentread comment
1 2 3 4 5
excellent!
x 7
add to favorites
launch autoscroll
font size
0
reset
guitar tuner
Autoscroll
slow
fast
+/-
esc
set tempo
stop
Help us to improve Ultimate-Guitar.com Take our survey!
×
Contributor
"Yeah Boy And Doll Face" -Pierce The Veil
Album: A Flair For The Dramatic
Bassist: Jaime Preciado

Way Cool Song, Have Fun With It!!!
Talented Band, Super Amazing Lyrics, You Gotta' Love It!!!
^.^

Intro (0:00) (No Bass Actually, But Here Are The Notes If You Want ^.^)
"Were You Honest When You Said, I Could Never Leave Your Bed..."
G|----------------------------------------------------------------|
D|----------------------------------------------------------------|
A|-4~----------------------------------------------3~-------------|
E|--------------5~--------------------2~--------------------------|

(0:22) "Now The Doctors Dancing In..."
G|-----------------------------------------|
D|-------------------------------------9~--|
A|--4~-------------------------------------|
E|-----------5~----------------0~----------|


1st Verse/Intro Continued (0:33)
"The Moment Thats Where I..."
G|----------------------------------------------------------------------|
D|----------------------------------------------------------------------|
A|-------------------------------4444444-2222222-0000000000-------------|
E|--9/---------555555555555555-------------------------------07540------|

Build-Up Thing
(0:44)
G|---------------------------------------------|
D|---------------------------------------------|
A|--444444444444444/16161616161616161616161616-|
E|---------------------------------------------|


1st Verse Continued
(0:50)
"Can I Even, Complicate Your Breathing..."
G|------------------------------------------------------------------|
D|------------------------------------------------------------------|
A|------------------------------------------------------------------|
E|-9999999-5555555-444444444444444--9999999-5555555-4444444-4-4-4---|


(1:00)
"With A Knife In The Back And A Grip On The Grass, It's Cold..."
G|----------------------------------------------------------------|
D|-----------------------------------7----------------------------|
A|----------------------------------7---4~----------------0~------|
E|--\9/----\7777/----\5555/-----5-5-------------7~---4~-----------|

"Are We Losing, Or Beginning To Start A New Life, Without You..."
(1:12)
G|---------------------------------------------------------------|
D|---------------------------------------------------------------|
A|----------------------------------0~-------0-0-0-0-0-0-0-0-----|
E|------------2~----1~----0~---------------------------------9/--|

"The Moment Thats Where I Kill The Conversation, Wrap This Up..."
(1:27)
G|---------------------------------------------------------------|
D|---------------------------------------------------------------|
A|----------------------4444444-2222222-0000000000000000---------|
E|----555555555555555--------------------------------------------|

"And She Could Make Hell Feel Just Like Home, So I'm Never Leaving Her Alone..."
(1:39)
G|---------------------------------------------------------------|
D|---------------------------------------------------------------|
A|-------------------4444444-2222222-0000000---------------------|
E|---555555555555555--------------------------XXXXXX-------------|


"But If Your Lightening Lips Arent Mine..."
(1:46)
G|--------------------------------------------------------------------|
D|--------------------------------------------------------------------|
A|---------------------4444444-2222222-0000-2h444-7h999-2h4-----------|
E|--22-2-2-22-44-4-4~-------------------------------------------------|


"I Only Need One Hand To Drive..."
(1:58)
G|-------------------------------------|
D|-------------------------------------|
A|-------------------------------------|
E|--22-2-2-22--44444444444444---9/-----|

"When Your With Me, Your My Get Away..."
(2:03)
G|-----------------------------------------------------------------------|
D|-----------------------------------------------------------------------|
A|------------------------------------444444444/9/44---------------------|
E|--99999999-7777h9p7-555555555555555----------------4-5-5555555-8888888-|

"And Don't You Ever Feel Alone. And Don't You Wish You Were Home..."
(2:14)
G|--------------------------------------|
D|--------------------------------------|
A|----------------0~~~~-----------------|
E|--999----777----------------0~~~~-----|

Bridge-Like-Thing
"Cut Lust Tonight, Alright Alight Tell Me Why. Little Mona Lisa Told A Lie..."
(2:22)
G|---------------------------------------------------------------|
D|---------------------------------------------------------------|
A|--4~~~~-------3~~~~----------4~~~~-----------------------------|
E|--------------------4~~~~----------------------------------9/--|

"Do You Want Me, Do You Want To Let Me Know That Your Ok..."
(2:41)
G|-----------------------------------------------------------------------|
D|-----------------------------------------------------------------------|
A|--44444444-------------------------------------------------------------|
E|-----------55555555-77777777-44444444----------------------------------|

"Diamond Gold Ring, Customized To Cut Your Circulation..."
(2:50)
G|-----------------------------------------------------------------------|
D|-----------------------------------------------------------------------|
A|--44444444-----------------4444-6666-----------------------------------|
E|----------55555555-77777777--------------------------------------------|

"And I Couldn't Let You Go, I Couldn't Let You Go My Dear..."
(2:58)
G|-----------------------------------------------------------------------|
D|-----------------------------------------------------------------------|
A|--44444444-----------------------7p6-----------------------------------|
E|-----------66666666-555555555555------------------------------------=--|

"So Keep Talkin' 'Cause They Love To Hear Your Voice..."
(3:07)
G|-----------------------------------------------------------------------|
D|-----------------------------------------------------------------------|
A|----------------4------------------------------------------------------|
E|--9-999--5-555----4~~~~-4-4-4-4-4-4-4-4/9*-----------------------------|

Outro
(3:19)
G|-----------------------------------------------------------------------|
D|-----------------------------------------------------------------------|
A|--77799977------------99977------67--11-11-11-9-9-9-7-7-----7--67------|
E|----------55555555-000-----555555------------------------555-55--------|

Outro (Cont.)   (The Chord I Throw In There Is Just For Fun...)
(3:33)
G|--------------------------------------------9--------------------------|
D|--------------------------------------------9--------------------------|
A|--7--7--77---------67/12~~~~----------------7--------------------------|
E|---00-00----555555--------------------------0~~~~~~~~~~~~~~~~~~~~~-----|



....Aaaaaaaaaaaaaand Your Done!!!
Check Out PTV's New Album "Selfish Machines", it's awesome!!!
^.^
comments
print report bad tab
1 comment total.
0 reply
sreynolds6388 22 wrote on October 29 2014, 09:08 am

I know this makes me seem like a perfectionist but the lyrics at one part are "keep talking cuz I'd love to hear your voice."

I want to post or [tab]
guest
You may want to rate the tab now too:
select rating
Please do not post tabs as comments. Select "correction" instead!