Oops, an error
Loading. Please wait.

Dreamer bass

13 views 1 this week
no commentswrite comment
1 2 3 4 5
3 more votes to show rating
add to favorites
×
Save as Personal and add changes to this tab that will be seen only by you. Learn more ›
×
You can save this tab as Personal to edit and correct it or add notes. All changes will be seen only by you. Learn more »
launch autoscroll
font size
0
reset
guitar tuner
edit
Autoscroll
slow
fast
+/-
esc
set tempo
stop
Tabbed by: 6METAL6BASSIST6
E-mail: petergriffinav@gmail.com

Tuning: 1/4 down from drop D.

G|------------------------------------------------------------------------------------------------|
D|------------------------------------------------------------------------------------------------|
A|5-----------------------------------------------5-----------------------------------------------|
D|------------------------------------------------------------------------------------------------|

0:07

G|------------------------------------------------------------------------------------------------|
D|------------------------------------------------------------------------------------------------|
A|5-----------------------------------------------5-----------------------------------------------|
D|0-----------------------------------------------0-----------------------------------------------|

G|------------------------------------------------------------------------------------------------|
D|------------------------------------------------------------------------------------------------|
A|1-----------------------------------------------0-----------------------------------------------|
D|------------------------------------------------------------------------------------------------|

0:22

G|------------------------------------------------------------------------------------------------|
D|------------------------------------------------------------------------------------------------|
A|5-----------------------4-----------------------3-----------------------2-----------------------|
D|------------------------------------------------------------------------------------------------|

G|------------------------------------------------------------------------------------------------|
D|------------------------------------------------------------------------------------------------|
A|1-------------------/---7-------------------\---0-----------------------------------------------|
D|------------------------------------------------------------------------------------------------|

0:37

G|------------------------------------------------------------------------------------------------|
D|------------------------------------------------------------------------------------------------|
A|5-----------------------4-----------------------3-----------------------1-------------------/---|
D|------------------------------------------------------------------------------------------------|

G|------------------------------------------------------------------------------------------------|
D|8-----------7-----------6-----------5-----------------------------------------------------------|
A|------------------------------------------------------------------------------------------------|
D|------------------------------------------------5-----------------------------------------------|

0:51

G|------------------------------------------------------------------------------------------------|
D|5-----------------------------------------------------------------------------------------------|
A|------------------------------------------------7-----------------------------------------------|
D|5-----------------------------------------------------------------------------------------------|

G|------------------------------------------------------------------------------------------------|
D|------------------------------------------------------------------------------------------------|
A|0-----------------------------------------------5-----------------------------------------------|
D|------------------------------------------------------------------------0-----------------------|

G|------------------------------------------------|
D|4-----------------------------------------------|
A|------------------------------------------------|
D|------------------------4-----------------------|

1:09

G|------------------------------------------------------------------------------------------------|
D|5-----------------------3-----------------------2-----------------------6-----------------------|
A|------------------------------------------------------------------------------------------------|
D|------------------------------------------------------------------------------------------------|

G|------------------------------------------------------------------------------------------------|
D|7-----------------------5-----------------------3-----------------------2-----------------------|
A|------------------------------------------------------------------------------------------------|
D|------------------------------------------------------------------------------------------------|

1:24

G|------------------------------------------------------------------------------------------------|
D|------------------------------------------------------------------------------------7-----------|
A|5-----------------------3-----------------------1-----------------------0-----------------------|
D|------------------------------------------------------------------------------------------------|

G|------------------------------------------------------------------------------------------------|
D|5-----------7-----------8-----------6-----------7-----------------------------------7-------\---|
A|------------------------------------------------------------------------------------------------|
D|------------------------------------------------------------------------7-----------------------|

1:38

G|------------------------7-----------------------------------------------------------------------|
D|------------------------------------------------------------------------------------------------|
A|5-----------------------------------------------5-----------------------5-----------------------|
D|------------------------------------------------0-----------------------------------------------|

G|----------------------------------/-9---7---5---------------------------------------------------|
D|----------------------------------------------/-8-----------------------7---------------7---\---|
A|5-----------------------3-------------------------------------------------------0---------------|
D|------------------------------------------------------------------------------------------------|

1:53

G|------------------------------------------------------------------------------------------------|
D|--------------------7-----------------/-7---\---------------------------------------------------|
A|5---------------------5-3-----------------------1-----------------------0-----------------------|
D|------------------------------------------------------------------------------------------------|

G|----------------------------------------------------------------------------------------9---\---|
D|----------------5---------------5---------------------------------------------------------------|
A|------------------------------------------------5-7-------------------------7-------------------|
D|5-------------------5-------------------5-------------------------------------------------------|

2:08

G|------------------------------------------------7---------------------------------------7-------|
D|----------------------------------------19--\---------------------------------------------------|
A|0---------------------------0-----------------------------------5---------------------------5---|
D|------------------------------------------------------------------------------------------------|

G|------------------------------------------------------------------------------/-9-------7-\-5---|
D|----------------------------------------------------------------7-----------------------------/-|
A|5-----------------------5-------------------0---5-------------------5---3-----------------------|
D|0-----------------------------------------------------------------------------------------------|

2:22

G|------------------------------------------------------------------------------------------------|
D|8-----------------------7-----------------------------------------------------------------------|
A|--------------------------------------------0---1-----------------------1-------------------x---|
D|------------------------------------------------------------------------------------------------|

G|------------------------------------------------------------------------------------------------|
D|5-------------------------------5-----------x---7-------------------\---------------------------|
A|------------------------------------------------------------------------0-----------------------|
D|------------------------5-----------------------------------------------------------------------|

2:37

G|------------------------------------------------------------------------------------------------|
D|------------------------------------------------------------------------------------------------|
A|5-----------------------------------------------5-----------------------------------------------|
D|------------------------------------------------0-----------------------------------------------|

G|------------------------------------------------------------------------------------------------|
D|------------------------------------------------------------------------------------------------|
A|5---------------------------------------12\-----5---------------------------------------12\-----|
D|0-----------------------------------------------0-----------------------------------------------|

2:51

G|------------------------------------------------------------------------------------------------|
D|------------------------------------------------------------------------------------------------|
A|5---------------------------------------12--\-----5-----------------------------------------12--|
D|0-------------------------------------------------0---------------------------------------------|

G|----------------------------------------------------|
D|----------------------------------------------------|
A|\-------5-------------------------------------------|
D|--------0---------------------------------------0---|

            
            
Suggest correction
Creating personal tab
Creating personal tab
You can edit any tab online and save it as your Personal.

You can edit, replace or remove any tab part or add personal notes – all changes will be seen only by you.

Personal tabs can be accessed anytime from any device, even offline.
Learn more »
Give kudos to tab author, rate the tab!
1 2 3 4 5
comments
print report bad tab
guest
You may want to rate the tab now too:
select rating
Wanna post a correction for this tab? Suggest correction