Oops, an error
Loading. Please wait.

The Return From Fingal Tab

1,349 views 6 this week
no commentswrite comment
1 2 3 4 5
2 more votes to show rating
add to favorites
launch autoscroll
font size
0
reset
how to read this tab
guitar tuner
Autoscroll
slow
fast
+/-
esc
set tempo
stop
Help us to improve Ultimate-Guitar.com Take our survey!
×
Author
The Return From Fingal - Pierre Bensusan (born 1957)


D||----------------------|------------------------|----------------------|
A||--2-------------------|----------0--0-2--------|----------------------|
G||---------0------------|-----0----------------0-|----------------------|
D||--2-----------4--2----|--4----------2----------|-----4--2------2------|
A||--0-------------------|-------------0----------|----------------------|
D||----------------------|------------------------|--------------------0-|

--------------------0---|---------------------|----------------0----2-|
---2-0-----------0------|-----0------2------0-|--------2----4---------|
---------0--------------|---------------------|-----------------------|
---0--------4-------0---|-----0-------------0-|--------0-------0------|
------------------------|---------------------|-----------------------|
---0----------------4---|------------5--------|-----4--0-------2------|

-----------------------|----------------------|----------------------|
---0-2-----------------|------------0--2------|----------------------|
------------0----------|-------0--------------|--0-------------------|
---2-------------4--2--|----4----------2------|-------4--2------2----|
---0-------------------|---------------0------|----------------------|
-----------------------|----------------------|----------------------|

-----------------------0-|---------------------|---------------------|
-----0-2------------0----|-------0-------5-----|---4-------4---------|
------------0------------|------------0--------|---------------------|
-----0---------4-------0-|---------------4-----|---2-------2---------|
-------------------------|---------------0-----|--------0------------|
--0--0-----------------4-|-------5-------------|---------------------|

----------------------|----------------------|----------------------|
-----2----------------|-------------0--2-----|----------------------|
------------0---------|--------0-------------|---0------------------|
-----2-----------4--2-|-----4----------2-----|--------4--2------2---|
-----0----------------|----------------0-----|----------------------|
----------------------|----------------------|----------------------|

------------------------|--0------------------|--------------------0--|
------0-2------------0--|---------0------2----|----0-------2----4-----|
-------------0----------|----------------0----|-----------------------|
------0---------4-------|--0------0-----------|----0-------0-------0--|
------------------------|---------------------|-----------------------|
---0--0-----------------|--4-------------5----|---------4--0-------2--|

----2-----------------|------------------------|----------------------|
-------2--------------|---------------0--0-2---|----------------------|
--------------0-------|----------0-------------|-----0----------------|
-------2-----------4--|--2----4----------2-----|----------4--2------2-|
-------0--------------|------------------0-----|----------------------|
----------------------|------------------------|----------------------|

------------------------|---0------------------|--------------------0-|
--------2-0-----------0-|----------0-------5---|-----4-------4--------|
--------------0---------|---------------0------|----------------------|
--------0--------4------|---0--------------4---|-----2-------2------0-|
------------------------|------------------0---|----------0-----------|
-----0--0---------------|---4------5-----------|----------------------|

-----2--2----4--2-4---0-|---2----4-2-0-----------|------------0--------|
------------------------|-----------------4--2---|-----0-------------0-|
------------------------|--------------------0---|---------------------|
--------0-------0-------|---0--------------------|-----0------0------0-|
------------------------|------------------------|---------------------|
--------0---------------|---4----------------5---|------------0--------|

----------------------|---0-----------------|---------------------0-|
--------0--2----0-----|----------0----------|----------0--2----4----|
--------0-------------|-----------------4---|-------------0---------|
----------------------|---0-------------5---|---------------------0-|
----------------0-----|-----------------5---|-------------2---------|
-----4--5-------------|---4------0------2---|-----5-----------------|

-----2--4------4-2---0-|---2----4-2-0-----------|------------0--------|
-----------------------|-----------------4--2---|-----0-------------0-|
-----------------------|--------------------0---|---------------------|
--------4------0-------|---0--------------------|-----0------0------0-|
-----------------------|------------------------|---------------------|
--------0--------------|---4----------------5---|------------0--------|

------------------------|---0------------------|--------------------0-|
--------0-0-----------0-|----------0-------5---|-----4-------4--------|
--------------0---------|---------------0------|----------------------|
-----------------4------|---0--------------4---|-----2-------2------0-|
------------------------|------------------0---|----------0-----------|
-----4--5---------------|---4------5-----------|----------------------|

-----2--2----4--2-4---0-|---2----4-2-0-----------|------------0--------|
------------------------|-----------------4--2---|-----0-------------0-|
------------------------|--------------------0---|---------------------|
--------0-------0-------|---0--------------------|-----0------0------0-|
------------------------|------------------------|---------------------|
--------0---------------|---4----------------5---|------------0--------|

----------------------|---0-----------------|---------------------0-|
--------0--2----0-----|----------0----------|----------0--2----4----|
--------0-------------|-----------------4---|-------------0---------|
----------------------|---0-------------5---|---------------------0-|
----------------0-----|-----------------5---|-------------2---------|
-----4--5-------------|---4------0------2---|-----5-----------------|

-----2--4------4-2---0-|---2----4-2-0-----------|------------0--------|
-----------------------|-----------------4--2---|-----0-------------0-|
-----------------------|--------------------0---|---------------------|
--------4------0-------|---0--------------------|-----0------0------0-|
-----------------------|------------------------|---------------------|
--------0--------------|---4----------------5---|------------0--------|

------------------------|---0------------------|---------------------||
--------0-2-----------0-|----------0-------5---|-----4-------4-------||
--------------0---------|---------------0------|---------------------||
-----------------4------|---0--------------4---|-----2-------2-------||
------------------------|------------------0---|----------0----------||
-----4--5---------------|---4------5-----------|---------------------||
Suggest correction
Give kudos to tab author, rate the tab!
1 2 3 4 5
comments
print report bad tab
guest
You may want to rate the tab now too:
select rating
Wanna post a correction for this tab? Suggest correction