Oops, an error
Loading. Please wait.

Undercover Tab

version 1
version 1

Whole song

23,478 views 63 this week
no commentswrite comment
1 2 3 4 5
x 6
add to favorites
launch autoscroll
font size
0
reset
how to read this tab
guitar tuner
Autoscroll
slow
fast
+/-
esc
set tempo
stop
Help us to improve Ultimate-Guitar.com Take our survey!
×
Author
Difficulty
Capo
intermediate
1st fret
Pierre van Dormael - Undercover
http://www.pierrevandormael.com/ 
 
Go to this vid to see the original. http://www.youtube.com/watch?v=YM6AhctCKIU 
  
Standard tuning - Capo 1st fret.

[Intro]
e|------------------------------|-----------------0-----|
B|----------0------------0------|-------0---------0-----|
G|----------0------------0------|-------0---------2-----|
D|---------------2-0--0-------0-|-----------------1-----|
A|------------------------------|-3----------3-2--2-----|
E|----0--0----------------------|----0------------------|

e|------------------------------|-----------------0-----|
B|----------0------------0------|-------0---------0-----|
G|----------0------------0------|-------0---------2-----|
D|----2--2-------2-0--0-------0-|-----------------1-----|
A|------------------------------|-3--3-------3-2--2-----|
E|------------------------------|-----------------------|

[Song]
e|------------------------------|-----------------0-----|
B|----------0------------0------|-------0---------0-----|
G|----------0------------0------|-------0---------2-----|
D|----2---2------2-0--0-------0-|-----------------1-----|
A|------------------------------|-3---3------3-2--2-----|
E|------------------------------|-----------------------|

e|------------------------------|---------------0----0--|
B|----------0------------0------|------0-------2----3---|
G|----------0------------0------|------0------1----1----|
D|----2---2------2-0--0-------0-|------------0----------|
A|------------------------------|-3--3-----3------1-----|
E|------------------------------|-----------------------|

e|--------------------------3---|-----------------------|
B|----1-----1-------------------|--7-----------5----5---|
G|----0-----0------2--2---2-----|--7-----------4----4---|
D|-----------------1--1----1----|--6-----------5----5---|
A|----0---0--------2--2--2------|--7----7-5----4----4---|
E|------------------------------|-----7-----------------|

e|------------------------------|-----------------------|
B|------------------1-----------|-----------------------|
G|----5-------------2-----------|--------3----2---------|
D|----5-------------------------|---2----2----1----1----|
A|----3-----3-2-----0-----0-----|--------3----2---------|
E|--------3-----------------3---|---2-------------------|
Suggest correction
comments
print report bad tab
guest
You may want to rate the tab now too:
select rating
Wanna post a correction for this tab? Suggest correction