Oops, an error
Loading. Please wait.

Missing Words tab

37 views 3 this week
1 commentread comment
1 2 3 4 5
2 more votes to show rating
add to favorites
×
Save as Personal and add changes to this tab that will be seen only by you. Learn more ›
×
You can save this tab as Personal to edit and correct it or add notes. All changes will be seen only by you. Learn more »
launch autoscroll
font size
0
reset
how to read this tab
guitar tuner
edit
Autoscroll
slow
fast
+/-
esc
set tempo
stop
Piers Faccini - Missing Words
Tuning (low to high): D G D G Bb D - capo 5, open Cm tuning
tabbed by jjhand


[Intro]

D |-3-----3-----1---0---------------|-1-----1-----1/3--0----------------|
Bb|---0-----0---------------0-------|---0-----0----------------0--------|
G |-----0-----0---------------------|-----0-----0-----------------------|
D |-3-----3-----1---0-----------0---|-1-----1-----1/3--0-----------0----|
G |---------------------0-----------|----------------------0------------|
D |---------------------------------|-----------------------------------|

D |-3-----3-----1---0---------------|-1-----1-----1/3--0----------------|
Bb|---0-----0-----------------------|---0-----0-------------------------|
G |-----0-----0-----------------0---|-----0-----0-----------------------|
D |-3-----3-----1---0---------------|-1-----1-----1/3--0----------------|
G |---------------------0-----------|----------------------0------------|
D |---------------------------------|-----------------------------------|



[Verse]

D |-------3------------------|-------1-----------------|
Bb|-----0-----0--------------|-----0-----0-------------|
G |---2----------------------|---0---------------------|  play 2x
D |-3------------------------|-1-----------------------|
G |---------------0----------|-------------------------|
D |--------------------------|---------------1---------|

D |-------0---------------0-------|-------0-----------0----------|
Bb|-----0-----0---------0-----0---|-----0-----0---------0-----0--|
G |-3-----------3---2-----------2-|-3-----------3-0-------0------|
D |-------------------------------|------------------------------|
G |-------------------------------|------------------------------|
D |-5---------------3-------------|-5-------------1---------0----|

D |-------0---------------0-------|-------0----------------------|
Bb|-----0-----0---------0-----0---|-----0-----0------------------|
G |-3-----------3---2-----------2-|-3-----------3-0--------------|
D |-------------------------------|------------------------------|
G |-------------------------------|------------------------------|
D |-5---------------3-----------3-|-5-------------1--------------|


[Transition]

      7/4 time (7 beats/bar in this section)

D |-7---8---3-------3-------3--------3/5-------1---0h1---0---0--------|
Bb|-0---0---0-------0-------0--------0---------0---0-----0---0--------|
G |-------------------------------------------------------------------|
D |-7---8-----------3---3---3---3----3/5-------1---0h1---0-------0----|
G |---------0---------------------------------------------------------|
D |-------------------------------------------------------------------|

D |-7---8---3-------3-------3--------3/5-------1---0h1---0------------|
Bb|-0---0---0-------0-------0--------0---------0---0-----0------------|
G |-------------------------------------------------------------------|
D |-7---8-----------3---3---3---3----3/5-------1---0h1---0------------|
G |---------0---------------------------------------------------------|
D |-------------------------------------------------------------------|



[Verse 2]

    (0:54)
D |-------0---------------0-------|-------0-----------0----------|
Bb|-----0-----0---------0-----0---|-----0-----0---------0-----0--|
G |-3-----------3---2-----------2-|-3-----------3-0-------0------|
D |-------------------------------|------------------------------|
G |-------------------------------|------------------------------|
D |-5---------------3-------------|-5-------------1---------0----|

D |-------0---------------0-------|-------0----------------------|
Bb|-----0-----0---------0-----0---|-----0-----0------------------|
G |-3-----------3---2-----------2-|-3-----------3-0--------------|
D |-------------------------------|------------------------------|
G |-------------------------------|------------------------------|
D |-5---------------3-------------|-5-------------1--------------|



[Bridge]

D |----------------------------|-------------------3---0h3p0--|
Bb|-------2-----0--------------|-------0-------0--------------|
G |---------0------------------|-----2---2--------------------|
D |---3-------3----------------|---3-------3------------------|
G |-0--------------------------|-0----------------------------|
D |----------------------------|------------------------------|


D |----------------------------|------------------------------|
Bb|-------2-----0--------------|-------0-------0--------------|
G |---------0------------------|-----2---2--------------------|
D |---3-------3----------------|---3-------3------------------|
G |----------------------------|------------------------------|
D |-1--------------------------|-1----------------------------|



[Verse 3]

    (1:18)
D |-------3------------------|-------1-----------------|
Bb|-----0-----0--------------|-----0-----0-------------|
G |---2----------------------|---0---------------------|  play 2x
D |-3------------------------|-1-----------------------|
G |---------------0----------|-------------------------|
D |--------------------------|---------------1---------|

D |-------0---------------0-------|-------0-----------0----------|
Bb|-----0-----0---------0-----0---|-----0-----0---------0-----0--|
G |-3-----------3---2-----------2-|-3-----------3-0-------0------|
D |-------------------------------|------------------------------|
G |-------------------------------|------------------------------|
D |-5---------------3-------------|-5-------------1---------0----|

D |-------0---------------0-------|-------0----------------------|
Bb|-----0-----0---------0-----0---|-----0-----0------------------|
G |-3-----------3---2-----------2-|-3-----------3-0--------------|
D |-------------------------------|------------------------------|
G |-------------------------------|------------------------------|
D |-5---------------3-------------|-5-------------1--------------|


[Transition 2]

      7/4 time (7 beats/bar in this section)

D |-7---8---3-------3-------3--------3/5-------1---0h1---0---0--------|
Bb|-0---0---0-------0-------0--------0---------0---0-----0---0--------|
G |-------------------------------------------------------------------|
D |-7---8-----------3---3---3---3----3/5-------1---0h1---0-------0----|
G |---------0---------------------------------------------------------|
D |-------------------------------------------------------------------|

D |-7---8---3-------3-------3--------3/5-------1---0h1---0------------|
Bb|-0---0---0-------0-------0--------0---------0---0-----0------------|
G |-------------------------------------------------------------------|
D |-7---8-----------3---3---3---3----3/5-------1---0h1---0------------|
G |---------0---------------------------------------------------------|
D |-------------------------------------------------------------------|



[Verse 4]

    (0:54)
D |-------0---------------0-------|-------0-----------0----------|
Bb|-----0-----0---------0-----0---|-----0-----0---------0-----0--|
G |-3-----------3---2-----------2-|-3-----------3-0-------0------|
D |-------------------------------|------------------------------|
G |-------------------------------|------------------------------|
D |-5---------------3-------------|-5-------------1---------0----|

D |-------0---------------0-------|-------0----------------------|
Bb|-----0-----0---------0-----0---|-----0-----0------------------|
G |-3-----------3---2-----------2-|-3-----------3-0--------------|
D |-------------------------------|------------------------------|
G |-------------------------------|------------------------------|
D |-5---------------3-------------|-5-------------1--------------|



[Bridge 2]
    (2:04)
D |----------------------------|-------------------3-0h3p0----|
Bb|-------2-----0--------------|-------0-------0--------------|
G |---------0------------------|-----2---2--------------------|
D |---3-------3----------------|---3-------3------------------|
G |-0--------------------------|-0----------------------------|
D |----------------------------|------------------------------|

D |----------------------------|------------------------------|
Bb|-------2-----0--------------|-------0-------0--------------|
G |---------0------------------|-----2---2--------------------|
D |---3-------3----------------|---3-------3------------------|
G |----------------------------|------------------------------|
D |-1--------------------------|-1----------------------------|


D |-------0---------------0-------|-------0-----------0----------|
Bb|-----0-----0---------0-----0---|-----0-----0---------0-----0--|
G |-3-----------3---2-----------2-|-3-----------3-0-------0------|
D |-------------------------------|------------------------------| play 2x
G |-------------------------------|------------------------------|
D |-5---------------3-------------|-5-------------1---------0----|



[Verse 5]

    (2:28)
D |-------0---------------0-------|-------0-----------0----------|
Bb|-----0-----0---------0-----0---|-----0-----0---------0-----0--|
G |-3-----------3---2-----------2-|-3-----------3-0-------0------|
D |-------------------------------|------------------------------|
G |-------------------------------|------------------------------|
D |-5---------------3-------------|-5-------------1---------0----|
    "Where    should I go..."


D |-------0---------------0-------|-------0----------------------|
Bb|-----0-----0---------0-----0---|-----0-----0------------------|
G |-3-----------3---2-----------2-|-3-----------3-0--------------|
D |-------------------------------|------------------------------|
G |-------------------------------|------------------------------|
D |-5---------------3-------------|-5-------------1--------------|



[Bridge 2]
    (2:04)
D |----------------------------|-------------------3-0h3p0----|
Bb|-------2-----0--------------|-------0-------0--------------|
G |---------0------------------|-----2---2--------------------|
D |---3-------3----------------|---3-------3------------------|
G |-0--------------------------|-0----------------------------|
D |----------------------------|------------------------------|

D |----------------------------|------------------------------|
Bb|-------2-----0--------------|-------0-------0--------------|
G |---------0------------------|-----2---2--------------------|
D |---3-------3----------------|---3-------3------------------|
G |----------------------------|------------------------------|
D |-1--------------------------|-1----------------------------|



[Outro]

D |-0-----0-----0----0-----0--------|-0-----0-----0---0-----0--------|
Bb|-0-----0-----0----0-----0---x-x--|-0-----0-----0---0-----0---x-x--|
G |-0-----2-----3----3-----3---x-x--|-3-----2-----0---0-----0---x-x--|
D |---------------------------------|--------------------------------| play 2x
G |---------------------------------|--------------------------------|
D |-1-----3-----5-------5-----------|-5-----3-----1------1-----------|

D |---------------------------------|------------------------------------------0--5---|
Bb|-0-----0-------------------------|----------------------------------------0--------|
G |-0-----0-----2-------------------|-3-----2/3--3------0--/3-------0------0----------|
D |---------------------------------|----0----------3-----------3--------0------------|
G |---------------------------------|----------------------------------0--------------|
D |-1-----1-----3-------------------|-5-----------------------------------------------|


************************************

| x   Dead note
| h   Hammer-on
| p   Pull-off
| /   Slide up
| \   Slide down

************************************

            
            
Suggest correction
Creating personal tab
Creating personal tab
You can edit any tab online and save it as your Personal.

You can edit, replace or remove any tab part or add personal notes – all changes will be seen only by you.

Personal tabs can be accessed anytime from any device, even offline.
Learn more »
Give kudos to tab author, rate the tab!
1 2 3 4 5
comments
print report bad tab
1 comment total.
0 reply
bjoerge 207 Jul 04, 2017 02:40 PM, edited on July 30 2017, 11:51 am

Thanks! This is great!

guest
You may want to rate the tab now too:
select rating
Wanna post a correction for this tab? Suggest correction