Oops, an error
Loading. Please wait.

We Come And Go tab

34 views 1 this week
no commentswrite comment
1 2 3 4 5
3 more votes to show rating
add to favorites
×
Save as Personal and add changes to this tab that will be seen only by you. Learn more ›
×
You can save this tab as Personal to edit and correct it or add notes. All changes will be seen only by you. Learn more »
launch autoscroll
font size
0
reset
how to read this tab
guitar tuner
edit
Autoscroll
slow
fast
+/-
esc
set tempo
stop
About this tab version
Full guitar tab, including most of second guitar lead lines. Please rate or comment. Was this info helpful? Yes No
Piers Faccini - We Come and We Go
Tuning (low to high): Standard - capo 3, on 2 guitars
tabbed by jjhand


[Intro]

e|---------------------------------------|----------------------3---0---------|
B|---------------------------------------|------------------------------------|
G|-2--4--2h4p2p0------0------------------|-2--4p2p0---------------------------|
D|---------------------------------------|------------------------------------|
A|---------------------------0--2--0-----|------------------------5---0-------|
E|----------------0-------3--------------|------------0---0---3---------------|



[Verse 1]

   Guitar 1
e|----------------------------------------|------------------------------------|
B|----0--1p0------------------------------|----0--1p0--------------------------|
G|-2--------------------------------------|-2----------------------------------|
D|----------------------------------------|------------------------------------| play 3x
A|--------------------------0--2--5--0----|---------------------------5---0----|
E|-------------0----0----3----------------|-------------0----0----3------------|


e|----------------------------------------|------------------------------------|
B|----0--1p0------------------------------|----0--1p0--------------------------|
G|-2--------------------------------------|-2----------------------------------|
D|----------------------------------------|-------------------------------2----|
A|--------------------------0--2--5--0----|-------------------------------3----|
E|-------------0----0----3----------------|-------------0----0----3------------|


   Guitar 2 (0:27)
e|-------3----3----0-------------------|--------------------------------------|
B|----------------------3----0---------|--------------------------------------|
G|--------------------------------2----|--------------------------------------|
D|-------------------------------------|--------------------------------------|
A|-------------------------------------|--------------------------------------|
E|-------------------------------------|--------------------------------------|




[Transition to Verse 2]

(0:40) Guitar 2
e|-0--5--0--3--0-------------0--3--0------------|-----------------------------|
B|------------------3--1--3-----------3-1h3p1---|-----------------------------|
G|--------------------------------------------0-|-2---------------------------| verse starts
D|----------------------------------------------|-----------------------------| in bar 2
A|----------------------------------------------|-----------------------------|
E|----------------------------------------------|-----------------------------|



[Verse 2]

   Guitar 1
e|----------------------------------------|------------------------------------|
B|----0--1p0------------------------------|----0--1p0--------------------------|
G|-2--------------------------------------|-2----------------------------------|
D|----------------------------------------|------------------------------------| play 3x
A|--------------------------0--2--5--0----|---------------------------5---0----|
E|-------------0----0----3----------------|-------------0----0----3------------|

e|----------------------------------------|------------------------------------|
B|----0--1p0------------------------------|----0--1p0--------------------------|
G|-2--------------------------------------|-2----------------------------------|
D|----------------------------------------|-------------------------------2----|
A|--------------------------0--2--5--0----|-------------------------------3----|
E|-------------0----0----3----------------|-------------0----0----3------------|


   Guitar 2, harmony during verse
   
e|-0--------------0----0------------------|--------0---3----0-----------------|
B|----------------------------------------|----3---------------3--0-----------|
G|----------------------------------------|--------------------------2--------|
D|----------------------------------------|-----------------------------------|
A|----------------------------------------|-----------------------------------|
E|----------------------------------------|-----------------------------------|

e|----------------0----0-------0----------|--------3---5----------------------|
B|----------------------------------------|-----------------5-----------------|
G|----------------------------------------|-----------------------------------|
D|----------------------------------------|-----------------------------------|
A|----------------------------------------|-----------------------------------|
E|----------------------------------------|-----------------------------------|

e|---------------------5-------5----------|----5--3-------------0-------------|
B|----------------------------------------|----------5-----3h5----------------|
G|----------------------------------------|-----------------------------------|
D|----------------------------------------|-----------------------------------|
A|----------------------------------------|-----------------------------------|
E|----------------------------------------|-----------------------------------|

e|----------------------------------------|------------0-----0-----0----------|
B|----------------------------------------|-----------------------------------|
G|-----5p4p2---2--------------------------|-----------------------------------|
D|----------------------------------------|-----------------------------------|
A|----------------------------------------|-----------------------------------|
E|----------------------------------------|-----------------------------------|



[Transition to Theme 2]

(1:16) Guitar 2
e|-0--5--0--3--0-------------0--3--0h3p0--------|-----------------------------|
B|------------------3--1--3---------------1-----|-----------------------------|
G|--------------------------------------------0-|-2---------------------------| verse starts
D|----------------------------------------------|-----------------------------| in bar 2
A|----------------------------------------------|-----------------------------|
E|----------------------------------------------|-----------------------------|



[Theme 2]

   Guitar 1
e|----------------------------|-----------------------|---------0----------------|-----------0---------|
B|----------------------------|------3----------------|--------------------------|------3---------3----|
G|-------5----------5p4p2-----|-----------------------|-------5----------5p4p2---|---------------------|
D|-2--2-------2--2------------|-4--4------------------|-2--2-------2--2----------|-4--4----------------|
A|----------------------------|-----------------------|--------------------------|---------------------|
E|----------------------------|-----------------------|--------------------------|---------------------|
 | 
 | Guitar 2
e|----------------------------|------0--0--0--0--0----|-------------------3--5---|---------------------|
B|----------------------------|-----------------------|--------------------------|-5--3--3--3-----3----|
G|----------------------------|-----------------------|--------------------------|---------------------|
D|----------------------------|-----------------------|--------------------------|---------------------|
A|----------------------------|-----------------------|--------------------------|---------------------|
E|----------------------------|-----------------------|--------------------------|---------------------|

  continue similarly with lyrics:

  "Oh...  over and over
   Go...  forever wandering
   So...  into directions and
   Now... forever wandering 
   So..."



[Verse 3]

   Guitar 1 (2:02)
e|----------------------------------------|------------------------------------|
B|----0--1p0------------------------------|----0--1p0--------------------------|
G|-2--------------------------------------|-2----------------------------------|
D|----------------------------------------|------------------------------------| play 4x
A|--------------------------0--2--5--0----|---------------------------5---0----|
E|-------------0----0----3----------------|-------------0----0----3------------|

   ending
e|----------------------------------------|------------------------------------|
B|----0--1p0------------------------------|----0--1p0--------------------------|
G|-2--------------------------------------|-2----------------------------------|
D|----------------------------------------|-------------------------------2----|
A|--------------------------0--2--5--0----|-------------------------------3----|
E|-------------0----0----3----------------|-------------0----0----3------------|


   Guitar 2, harmony during verse 3
   
e|----------------------------------------|------------------------3---0------|
B|----------------------------------------|----0------------------------------|
G|----------------------------------------|-2-----0---------------------------|
D|----------------------------------------|-----------------------------------|
A|----------------------------------------|-----------------------------------|
E|----------------------------------------|-----------------------------------|

** rest for 6 bars, come in on 4th time through the repeated part above (2:29)

e|----------------------------------------|----3----3----0--------------------|
B|----------------------------------------|-------------------3----0----------|
G|----------------------------------------|-----------------------------2-----|
D|----------------------------------------|-----------------------------------|
A|----------------------------------------|-----------------------------------|
E|----------------------------------------|-----------------------------------|



[Transition to Verse 4]

(2:41) Guitar 2
e|-0--5--0--3--0-------------0--3--0------------|-----------------------------|
B|------------------3--1--3-----------3-1h3p1---|-----------------------------|
G|--------------------------------------------0-|-2---------------------------| verse starts
D|----------------------------------------------|-----------------------------| in bar 2
A|----------------------------------------------|-----------------------------|
E|----------------------------------------------|-----------------------------|



[Verse 4]

   Guitar 1
e|---------------------------------------|------------------------------------|
B|----0--1p0-----------------------------|----0--1p0--------------------------|
G|-2-------------------------------------|-2----------------------------------|
D|---------------------------------------|------------------------------------| play 3x
A|--------------------------0--2----0----|---------------------------5---0----|
E|-------------0----0----3---------------|-------------0----0----3------------|

                                           3 beats
e|---------------------------------------|-----------------------------|
B|----0--1p0-----------------------------|----0--1p0-------------------|
G|-2-------------------------------------|-2---------------------------|
D|---------------------------------------|-----------------------------|
A|--------------------------0--2----0----|-----------------------------|
E|-------------0----0----3---------------|-------------0----0----3-----|

   Guitar 2, harmony during verse
   
e|-0--------------0----0------------------|--------0---3----0-----------------|
B|----------------------------------------|----3---------------3--0-----------|
G|----------------------------------------|--------------------------2--------|
D|----------------------------------------|-----------------------------------|
A|----------------------------------------|-----------------------------------|
E|----------------------------------------|-----------------------------------|

e|----------------0----0-------0----------|--------3---5----------------------|
B|----------------------------------------|-----------------5-----------------|
G|----------------------------------------|-----------------------------------|
D|----------------------------------------|-----------------------------------|
A|----------------------------------------|-----------------------------------|
E|----------------------------------------|-----------------------------------|

e|---------------------5-------5----------|----5--3------------------0--------|
B|----------------------------------------|----------5----------3h5-----------|
G|----------------------------------------|-----------------------------------|
D|----------------------------------------|-----------------------------------|
A|----------------------------------------|-----------------------------------|
E|----------------------------------------|-----------------------------------|

e|----------------------------------------|-----------------0-0-0-0---0--0-0--|
B|----------------------------------------|-----------------------------------|
G|-----5p4p2---2--------------------------|-----------------------------------|
D|----------------------------------------|-----------------------------------|
A|----------------------------------------|-----------------------------------|
E|----------------------------------------|-----------------------------------|



[Outro]

   Guitar 1
e|-0-------------------------------------|-----------------------------------|
B|-1-----------------3-------------------|-5----------------3----------------|
G|-2-----------------2-------------------|-4----------------2----------------|
D|-2-----------------4-------------------|-6----------------4----------------|
A|-0-----------------5-------------------|-7----------------5----------------|
E|---------------------------------------|-----------------------------------|

During outro, guitar 2 plays open high e string randomly and some hammer-ons like before 


   Guitar 1 ending
e|-8------------8----------8---------8----------|
B|-----10----------10---------10--------10------|
G|----------9----------9----------9---------9---|  then play Transition riff to end the song
D|----------------------------------------------|
A|----------------------------------------------|
E|----------------------------------------------|


************************************

| h   Hammer-on
| p   Pull-off
| /   Slide up
| \   Slide down

************************************

            
            
Suggest correction
Creating personal tab
Creating personal tab
You can edit any tab online and save it as your Personal.

You can edit, replace or remove any tab part or add personal notes – all changes will be seen only by you.

Personal tabs can be accessed anytime from any device, even offline.
Learn more »
Give kudos to tab author, rate the tab!
1 2 3 4 5
comments
print report bad tab
guest
You may want to rate the tab now too:
select rating
Wanna post a correction for this tab? Suggest correction