Oops, an error
Loading. Please wait.

Laat Mijn Gaan tab

103 views 3 this week
no commentswrite comment
1 2 3 4 5
3 more votes to show rating
add to favorites
×
Save as Personal and add changes to this tab that will be seen only by you. Learn more ›
×
You can save this tab as Personal to edit and correct it or add notes. All changes will be seen only by you. Learn more »
launch autoscroll
font size
0
reset
how to read this tab
guitar tuner
edit
Autoscroll
slow
fast
+/-
esc
set tempo
stop
Pieter Embrechts – Laat mij gaan                                Capo 6

Intro:
E |----------------|-------------------|
B |---1---1---1----|-1---1---1---1---1-|
G |----------------|-------------------|
D |-----0---2------|---0---2---0---2---|  X 2
A |-3------------3-|-------------------|
E |----------------|-------------------|

E |----------------|-------------------|
B |---1---1---1----|-1---1---1---1---1-|
G |----------------|-------------------|
D |-----0---2------|---0---2---0---2---|  X 2
A |-3------------3-|-------------------|
E |----------------|-------------------|

E |----------------|-------------------|
B |---1---1---1----|-1---1---1---1---1-|
G |----------------|-------------------|
D |----------------|-------------------|
A |-0---2---3---0--|--2---3---2---0----|
E |----------------|-------------------|

E |----------------|-------------------|
B |---1---1---1----|-1---1---1---1---1-|
G |----------------|-------0-----------|
D |----------------|-----------3---2---|
A |----------------|-------------------|
E |-1---1---1---1--|---1---------------|

E |----------------|-------------------|
B |---1---1---1----|-1---1---1---1---1-|
G |----------------|-------------------|
D |-----0---2------|---0---2---0---2---|  X 2
A |-3------------3-|-------------------|
E |----------------|-------------------|

E |----------------|-------------------|
B |---1---1---1----|-1---1---1---1---1-|
G |----------------|-------------------|
D |----------------|-------------------|
A |-0---2---3---0--|--2---3---2---0----|
E |----------------|-------------------|

E |----------------|-------------------|
B |---1---1---1----|-1---1---1---1---1-|
G |----------------|-------0-----------|
D |----------------|-----------3---2---|
A |----------------|-------------------|
E |-1---1---1---1--|---1---------------|


Strofe 1
       C      |   C    |      C   |         C |
Zie ik u nog weer, was dit de laatste keer
     Am      | Am   -  Am/G |  F        |      F |    
Wij zeggen het is voorbij maar hier liggen we weer
            C  |   C    |         C   |         C |
Ik kom niet los van u ik wil niet met en zonder u
    Am      |    Am   -  Am/G | F        |      F |    
Verdwalen tussen lust en liefde lig ik hier bij u

Pre-Chorus
       Dm       |   Dm      |           Am    -     Am |
Ik heb verloren van verlangen, wordt herboren in de lust
     Dm        |    F       |   Em – G | Am – C |   
Hier in het hof van lakens uitgeblust

Chorus
         F     |   F     |          Am     | Am – Am/B |
Laat mij nu maar gaan, ik ben niet op wie jij wacht.
         F     |  F |    Am    | Am – Am/B |
Ik moet verder gaan, na deze nacht
       F      |  G        |         F       |       G |
Is het zoeken en verlangen naar wat wij niet konden vinden bij elkaar


(Ooooohw)
E |----------------|-------------------|
B |---1---1---1----|-1---1---1---1---1-|
G |----------------|-------------------|
D |-----0---2------|---0---2---0---2---|  X 2
A |-3------------3-|-------------------|
E |----------------|-------------------|

E |----------------|-------------------|
B |---1---1---1----|-1---1---1---1---1-|
G |----------------|-------------------|
D |----------------|-------------------|
A |-0---2---3---0--|--2---3---2---0----|
E |----------------|-------------------|

E |----------------|-------------------|
B |---1---1---1----|-1---1---1---1---1-|
G |----------------|-------0-----------|
D |----------------|-----------3---2---|
A |----------------|-------------------|
E |-1---1---1---1--|---1---------------|


Strofe 2
      C      |   C    |      C   |         C – C/E |
Er is een verschil tussen wat je kan en wil
     Am      | Am   -  Am/G |  F        |      F |
Je leerde mij om vrij te zijn en al doet dit afscheid pijn
      C      |   C    |      C   |         C – C/E |
Het is een cadeau ook al voelt het nu niet zo
     Am         |         Am   -  Am/G |  F        |      F – F/E |
De grote liefde laat zich niet misleiden, dat wiste wij beiden

Pre-Chorus
       Dm       |   Dm      |           Am    -     Am |
Ik heb verloren van verlangen, wordt herboren in de lust
     Dm        |    F       |   Em – G | Am – C |   
Hier in het hof van lakens uitgeblust

Chorus
         F     |   F     |          Am     | Am – Am/B |
Laat mij nu maar gaan, ik ben niet op wie jij wacht.
         F     |  F |    Am    | Am – Am/B |
Ik moet verder gaan, na deze nacht
       F       |    G        |     F/A       |       G/B |
Is het zoeken en verlangen naar je weet wel wat maar nog niet waar ,
    F        |          G   |
wij vonden het niet wij liggen bij elkaar.


(Ohhww)
E |----------------|-------------------|
B |---1---1---1----|-1---1---1---1---1-|
G |----------------|-------------------|
D |-----0---2------|---0---2---0---2---|  X 2
A |-3------------3-|-------------------|
E |----------------|-------------------|

E |----------------|-------------------|
B |---1---1---1----|-1---1---1---1---1-|
G |----------------|-------------------|
D |----------------|-------------------|
A |-0---2---3---0--|--2---3---2---0----|
E |----------------|-------------------|

     F | F |


(toon hoger)
E |----------------|-------------------|
B |---3---3---3----|-3---3---3---3---3-|
G |----------------|-------------------|
D |-0---2---4----0-|---2---4---2---4---|  X 2
A |----------------|-------------------|
E |----------------|-------------------|

E |----------------|-------------------|
B |---3---3---3----|-3---3---3---3---3-|
G |----------------|-------------------|
D |---------0------|------0------------|
A |-2---4-------2--|--4-------4---2----|
E |----------------|-------------------|

E |----------------|-------------------|
B |---3---3---3----|-3---3---3---3---3-|
G |----------------|-------2---0-------|
D |----------------|---------------4---|
A |----------------|-------------------|
E |-3---3---3---3--|---3---------------|


Laat haar nu maar gaan, ik ben niet op wie jij wacht.
E |----------------|-------------------|
B |---3---3---3----|-3---3---3---3---3-|
G |----------------|-------------------|
D |-0---2---4----0-|---2---4---2---4---|  X 2
A |----------------|-------------------|
E |----------------|-------------------|

Ik moet verder gaan, 
E |----------------|-------------------|
B |---3---3---3----|-3---3---3---3---3-|
G |----------------|-------------------|
D |---------0------|------0------------|
A |-2---4-------2--|--4-------4---2----|
E |----------------|-------------------|

na deze nacht.
E |----------------|-------------------|
B |---3---3---3----|-3---3---3---3---3-|
G |----------------|-------2---0-------|
D |----------------|---------------4---|
A |----------------|-------------------|
E |-3---3---3---3--|---3---------------|

Laat mij nu maar gaan, Ik ben niet op wie jij wacht.
E |----------------|-------------------|
B |---3---3---3----|-3---3---3---3---3-|
G |----------------|-------------------|
D |-0---2---4----0-|---2---4---2---4---|  X 2
A |----------------|-------------------|
E |----------------|-------------------|

Ik moet verder gaan,
E |----------------|-------------------|
B |---3---3---3----|-3---3---3---3---3-|
G |----------------|-------------------|
D |---------0------|------0------------|
A |-2---4-------2--|--4-------4---2----|
E |----------------|-------------------|

                                        D |
na deze nacht.                Laat mij gaan.
E |----------------|-------------------|
B |---3---3---3----|-3---3---3---3---3-|
G |----------------|-------2---0-------|
D |----------------|---------------4---|
A |----------------|-------------------|
E |-3---3---3---3--|---3---------------|


Je kan meespelen met het nummer hier:
https://youtu.be/YBI9DpH53S8

            
            
Suggest correction
Creating personal tab
Creating personal tab
You can edit any tab online and save it as your Personal.

You can edit, replace or remove any tab part or add personal notes – all changes will be seen only by you.

Personal tabs can be accessed anytime from any device, even offline.
Learn more »
Give kudos to tab author, rate the tab!
1 2 3 4 5
comments
print report bad tab
guest
You may want to rate the tab now too:
select rating
Wanna post a correction for this tab? Suggest correction