Oops, an error
Loading. Please wait.

Crippled Horses Tab

version 2
version 2

Whole song

274 views 3 this week
no commentswrite comment
1 2 3 4 5
excellent!
x 1
add to favorites
launch autoscroll
font size
0
reset
how to read this tab
guitar tuner
Tab Pro tools
  • play this tab
  • loop segment
  • change instrument
  • show fretboard
  • metronome
Autoscroll
slow
fast
+/-
esc
set tempo
stop
Contributor
Difficulty
Tuning
intermediate
A E A D F# B
-----------------------------------------------------------------------------
                             Crippled Horses - Pig Destroyer
-----------------------------------------------------------------------------
Tabbed by: nikka_le200
E-mail: chavoriffic@yahoo.com

Tuning: A E A D G B E

(he may not use a seven string, but i finally got one so its all i use :3)



DRRRUUUMMMSSSS

doom duh-doom doom boom duh-doom boom ting 

e|---------------------------------|
B|---------------------------------| 8x
G|---------------------------------|
D|--7----------8-10-12-------7--8--|
A|--7----------8-10-12-------7--8--|
E|--5----------6-8--10-------5--6--|
A|-----(0-0-0)---------(0-0)-------|


e|-----------------------------------|
B|-----------------------------------|
G|-----------------------------------|
D|--5-5-5-8-8-7-7-5-5-4-4-4----------|
A|--------------------------7-7-7-7--|
E|--3-3-3-6-6-5-5-3-3-2-2-2----------|
A|--------------------------7-7-7-7--|

e|-------------------------------------------|
B|-------------------------------------------| 8x  
G|-------------------------------------------|
D|--4------------4-----7------------5-----5--|
A|--4------------4-----7------------5-----5--|
E|--2------------2-----5------------3-----3--|
A|-------(0-2-3)---(0)------(0-2-3)---(3)----|

e|-------------------------------------------------------------------------|
B|-------------------------------------------------------------------------|
G|-------------------------------------------------------------------------|
D|-7-7-7-8-8-8-5-5-5-7-7-7-8-8-11-11-7-7-7-8-8-8-5-5-5-7-7-7-8-8-10-10-----|
A|-------------------------------------------------------------------------|
E|-5-5-5-6-6-6-3-3-3-5-5-5-6-6-9--9--5-5-5-6-6-6-3-3-3-5-5-5-6-6-8--8------|
A|-------------------------------------------------------------------------|

e|-------------------------------------------------------------------------|
B|-------------------------------------------------------------------------|
G|-9-9-9-10-10-10-7-7-7-9-9-9-10-10--13--13--------------------------------|
D|-7-7-7-8--8--8--5-5-5-7-7-7-8--8---11--11-7-7-7-8-8-8-5-5-5-7-7-7-8-8-11-|
A|------------------------------------------7-7-7-8-8-8-5-5-5--------------|
E|-5-5-5-6--6--6--3-3-3-5-5-5-6--6---9---9--5-5-5-6-6-6-3-3-3-5-5-5-6-6-9--|
A|-------------------------------------------------------------------------|


e|-------------------------------------------------------------| 4x
B|-------------------------------------------------------------|
G|-------------------------------------------------------------|
D|--7~------------8-----5-----8/11-7~---------8-----5----------|
A|--------------------------------------------------------8\7--|
E|--5~--(0-0-0)---6-(0)-3-(0)-6/9--5~-(0-0-0)-6-(0)-3-(0)------|
A|------(0-0-0)-----(0)---(0)---------(0-0-0)---(0)---(0)-8\7--|

e|---------------------------------------------------| 4x
B|---------------------------------------------------|
G|---------------------------------------------------|
D|--7~------------8---5---8/11-7~-------8---5--------|
A|--7~------------8---5---8/11-7~-------8---5---8\7--|
E|--5~------------6---3---6/9--5~-------6---3---8\7--|
A|------0-0-0---0---0---0---------0-0-0---0---0-8\7--|

e|----------------------------| 4x
B|----------------------------|
G|----------------------------|
D|--13-13-----13-13-----------|
A|--13-13-----13-13-----------|
E|--11-11-----11-11-----[12]--|
A|--------(0)-------(0)-------|

the song/all the riffs are super short so i just put it all in order with no labels.
not even sure if there is a verse, chorus, etc type of structure anyhows. they kinda just
go for it \m/

************************************

| /   slide up
| \   slide down
| h   hammer-on
| p   pull-off
| ~   vibrato
| +   harmonic
| x   Mute note
| b   Bend
| pb  Pre-bend
| br  Bend release
| pbr Pre-bend release
| brb Bend release bend
|(x)  Palm mute
|[x]  Pinch harmonic
************************************
comments
We did not receive enough feedback on this tab! Please rate:
print report bad tab
1 2 3 4 5
I want to post or [tab]
guest
You may want to rate the tab now too:
select rating
Please do not post tabs as comments. Select "correction" instead!