Oops, an error
Loading. Please wait.

La Derniere Fois Chords

277 views 1 this week
no commentswrite comment
1 2 3 4 5
please rate
add to favorites
launch autoscroll
font size
0
reset
transpose
0
reset
display chords
guitar tuner
Tab Pro tools
  • play this tab
  • loop segment
  • change instrument
  • show fretboard
  • metronome
×
Best way to learn
"La Derniere Fois"
Autoscroll
slow
fast
+/-
esc
set tempo
stop
Contributor
Difficulty
novice
Pigalle - La dernière fois 

      C         Em        C         Em 
e|-------0---------0---------0---------------------------------------------|
B|----1-----1---0----0----1----1----0--------------------------------------|
G|-------------------------------------------------------------------------|
D|-------------------------------------------------------------------------|
A|----3------------------3-------------------------------------------------|
E|--------------0-------------------0--------------------------------------|  x2

      G         F        G         F     G        F 
e|----3--1--0---1--0--1--3--1--0---1-----3--1--0--1--0-----------------------|
B|------------------------------------------------------3--------------------|
G|---------------------------------------------------------------------------|
D|---------------------------------------------------------------------------|
A|---------------------------------------------------------------------------|
E|----3---------1--------3---------1-----3--------1--------------------------|

C          Em            C            Em
C’était la dernière fois où nous nous vîmes
C              Em
Sur le banc de bois,
          C             Em
A l’angle de la rue des Abîmes
G           F
Ton sourire creux
        G                   F
Plus la bise entre les deux yeux
G                      F           C
J’aurais dû sentir que c’était un adieu
             Em
Une dernière fois,
           C             Em
Sans craquement, sans larsen
   C                 Em     C         Em     
Au pire, juste une petite lichette de peine
G          F
Parfois ça craque,
           G              F
Même quand y a pas de fissure
   G                  F           C
Tombés de l’arbre, on devait être mûrs

C

   Bm       C
Si je me souviens toujours
   Bm             C
De cette dernière fois
Bm             C
Je me souviens bien aussi
      Bm             
De la toute première fois
Bm           C          Bm       C
Je buvais du gin et toi du gin citron
           Bm                   C
Vous savez comme les paroles de Pigalle,
         D           G
Dans une vieille chanson

C          Em            C            Em
C’était la dernière fois où nous nous vîmes
C              Em
Sur le banc de bois,
          C             Em
A l’angle de la rue des Abîmes
G           F
Ton sourire creux
        G                   F
Plus la bise entre les deux yeux
G                      F           Bm
J’aurais dû sentir que c’était un adieu


Bm C Bm C Bm C D G

C              Em          C         Em
Rien ne me laissait pressentir cette fin
C                  Em 
J’étais bien, tout était frais
     C        Em
Et l’odeur du matin
G            F
Bien sûr, j’étais surpris,
     G              F
Mais pas trop chiffonné
   G           
Ça devait forcément
           F
Un jour ou l’autre, arriver

C

Bm                  C
Pourquoi voudriez-vous
         Bm           C
Que nous eussions pleuré ?
    Bm               C                  D       
Pas de remord, juste quelques plis froissés
Bm                  C
Pas d’quoi faire un film,
        Bm            C
Y avait pas assez d’action
Bm            C         D        G
Juste de quoi faire une chouette chanson 


     C         Em        C         Em 
e|-------0---------0---------0---------------------------------------------|
B|----1-----1---0----0----1----1----0--------------------------------------|
G|-------------------------------------------------------------------------|
D|-------------------------------------------------------------------------|
A|----3------------------3-------------------------------------------------|
E|--------------0-------------------0--------------------------------------|  x2

      G         F        G         F     G        F 
e|----3--1--0---1--0--1--3--1--0---1-----3--1--0--1--0-----------------------|
B|------------------------------------------------------3--------------------|
G|---------------------------------------------------------------------------|
D|---------------------------------------------------------------------------|
A|---------------------------------------------------------------------------|
E|----3---------1--------3---------1-----3--------1--------------------------|
comments
We did not receive enough feedback on this tab! Please rate:
print report bad tab
1 2 3 4 5
I want to post or [tab]
guest
You may want to rate the tab now too:
select rating
Please do not post tabs as comments. Select "correction" instead!