Oops, an error
Loading. Please wait.

Papas Got A Brand New Pigbag bass

by Pigbag
502 views 24 this week
no commentswrite comment
1 2 3 4 5
3 more votes to show rating
add to favorites
×
Save as Personal and add changes to this tab that will be seen only by you. Learn more ›
×
You can save this tab as Personal to edit and correct it or add notes. All changes will be seen only by you. Learn more »
launch autoscroll
font size
0
reset
guitar tuner
edit
Autoscroll
slow
fast
+/-
esc
set tempo
stop
Author
Difficulty
-------------------------------------------------------------------------------
                  PAPA'S GOT A BRAND NEW PIGBAG 12" Version- Pigbag
-------------------------------------------------------------------------------
Tabbed by: Sam Hough
E-mail: samhough1997@gmail.com

The song consists of 5 different parts. The main riff has 3 different alternative endings.

Tuning: STANDARD

G|[--------part A------------------part B----------------]-------------------|
D|[-------1------------1-0--------1------------3-1---X2--]-------------------|
A|[-3-3-3---1-3--3-3-3------3-3-3---1-3--3-3-3-----------]-------------------|
E|[------------------------------------------------------]-------------------|

G|[------------------------------------------------part D---------------]----|
D|[-------1------------1-0---X3-------------0-1-0-1---------0-1-0---X2--]----|
A|[-3-3-3---1-3--3-3-3--------------3-33-33---------3-33-33-------------]----|
E|[---------------------------------------------------------------------]----|

G|---------------------------------------------------------------------------|
D|-------1------------1-0--------1------------3-1---X3-----------------------|
A|-3-3-3---1-3--3-3-3------3-3-3---1-3--3-3-3--------------------------------|
E|---------------------------------------------------------------------------|

G|-------------------------------0---0-0-------------------------------------|
D|-------1------------1-0----------------1-0---------------------------------|
A|-3-3-3---1-3--3-3-3------3-3-3-----part C----------------------------------|
E|---------------------------------------------------------------------------|

G|[--------------------------------------------------------------------------|
D|[-------1------------3-1--------1------------1-0--------1------------1-0---|
A|[-3-3-3---1-3--3-3-3------3-3-3---1-3--3-3-3------3-3-3---1-3--3-3-3-------|
E|[--------------------------------------------------------------------------|

G|------------------------------]--------------------------------------------|
D|-------1------------1-0---X2--]--------------------------------------------|
A|-3-3-3---1-3--3-3-3-----------]--------------------------------------------|
E|------------------------------]--------------------------------------------|

G|[------------------------------------------------------]-------------------|
D|[-------1------------3-1--------1------------1-0---X3--]-------------------|
A|[-3-3-3---1-3--3-3-3------3-3-3---1-3--3-3-3-----------]-------------------|
E|[------------------------------------------------------]-------------------|

G|-------------------------------0---0-0-------------------------------------|
D|-------1------------3-1----------------1-0--------1------------3-1---------|
A|-3-3-3---1-3--3-3-3------3-3-3--------------3-3-3---1-3--3-3-3-------------|
E|---------------------------------------------------------------------------|

G|[------------------------------]-----------------------------part E--------|
D|[-------1------------1-0---X2--]---------------3-33-33-3-3-3---------------|
A|[-3-3-3---1-3--3-3-3-----------]-3-33-33-3-3-3---------------3-33-33-3-3-3-|
E|[------------------------------]-------------------------------------------|

G|---------------------------------------------------------------------------|
D|---------------3-33-33-3-3-3-----------------------------------------------|
A|-3-33-33-3-3-3---------------3-33-33-3-3-3---drum break--------------------|
E|---------------------------------------------------------------------------|

G|[------------------------------------------------------]-------------------|
D|[-------1------------3-1--------1------------1-0---X2--]-sax break---------|
A|[-3-3-3---1-3--3-3-3------3-3-3---1-3--3-3-3-----------]-------------------|
E|[------------------------------------------------------]-------------------|

G|[------------------------------]-[-------------------------------------]---|
D|[-------1------------1-0---X2--]-[--------0-1-0-1---------0-1-0---X2---]---|
A|[-3-3-3---1-3--3-3-3-----------]-[3-33-33---------3-33-33--------------]---|
E|[------------------------------]-[-------------------------------------]---|

G|[------------------------------------------------------]-------------------|
D|[-------1------------1-0--------1------------3-1---X3--]-------------------|
A|[-3-3-3---1-3--3-3-3------3-3-3---1-3--3-3-3-----------]-------------------|
E|[------------------------------------------------------]-------------------|

G|-------------------------------0---0-0-------------------------------------|
D|-------1------------1-0----------------1-0---------------------------------|
A|-3-3-3---1-3--3-3-3------3-3-3---------------------------------------------|
E|---------------------------------------------------------------------------|

G|[--------------------------------------------------------------------------|
D|[-------1------------3-1--------1------------1-0--------1------------1-0---|
A|[-3-3-3---1-3--3-3-3------3-3-3---1-3--3-3-3------3-3-3---1-3--3-3-3-------|
E|[--------------------------------------------------------------------------|

G|------------------------------]--------------------------------------------|
D|-------1------------1-0---X2--]--------------------------------------------|
A|-3-3-3---1-3--3-3-3-----------]--------------------------------------------|
E|------------------------------]--------------------------------------------|

G|[------------------------------------------------------]-------------------|
D|[-------1------------3-1--------1------------1-0---X3--]-------------------|
A|[-3-3-3---1-3--3-3-3------3-3-3---1-3--3-3-3-----------]-------------------|
E|[------------------------------------------------------]-------------------|

G|-------------------------------0---0-0-------------------------------------|
D|-------1------------3-1----------------1-0--------1------------3-1---------|
A|-3-3-3---1-3--3-3-3------3-3-3--------------3-3-3---1-3--3-3-3-------------|
E|---------------------------------------------------------------------------|

G|[------------------------------]-------------------------------------------|
D|[-------1------------1-0---X2--]---------------3-33-33-3-3-3---------------|
A|[-3-3-3---1-3--3-3-3-----------]-3-33-33-3-3-3---------------3-33-33-3-3-3-|
E|[------------------------------]-------------------------------------------|

G|---------------------------------------------------------------------------|
D|---------------3-33-33-3-3-3-----------------------------------------------|
A|-3-33-33-3-3-3---------------3-33-33-3-3-3---------------------------------|
E|---------------------------------------------------------------------------|

G|[------------------------------------------------------]--------ending-----|
D|[-------1------------3-1--------1------------1-0---X3--]-------1-----------|
A|[-3-3-3---1-3--3-3-3------3-3-3---1-3--3-3-3-----------]-3-3-3-------------|
E|[------------------------------------------------------]-------------------|


The above was the tab for the whole song showing pattern repeats, and each part identified
as a letter A-E.
The pattern for the song by letters is as follows:

A B A B   A A A   D D   A B A B A B   A C   B A A A B A A A   B A B A B A   B C B   A A   E

drum break   B A B A   sax break   A A   D D   A B A B A B   A C   B A A A B A A A   B A B A B A

B C B   A A   E   B A B A B A   1/2A   ending

Good luck, it goes on for 6 minutes!

===============================================================================

            
            
Suggest correction
Creating personal tab
Creating personal tab
You can edit any tab online and save it as your Personal.

You can edit, replace or remove any tab part or add personal notes – all changes will be seen only by you.

Personal tabs can be accessed anytime from any device, even offline.
Learn more »
Give kudos to tab author, rate the tab!
1 2 3 4 5
comments
print report bad tab
guest
You may want to rate the tab now too:
select rating
Wanna post a correction for this tab? Suggest correction