Oops, an error
Loading. Please wait.

Bajo Tu Suela chords

102 views 1 this week
no commentswrite comment
1 2 3 4 5
3 more votes to show rating
add to favorites
×
Save as Personal and add changes to this tab that will be seen only by you. Learn more ›
×
You can save this tab as Personal to edit and correct it or add notes. All changes will be seen only by you. Learn more »
launch autoscroll
font size
0
reset
transpose
0
reset
display chords
guitar tuner
edit
Autoscroll
slow
fast
+/-
esc
set tempo
stop
Strumming
There is no strumming pattern for this song yet. and get +5 IQ
Intro   C-Em
        C-Em
C                    Em
Bajo tu suela, ya no quepo.
  C                  Em
Bajo tu calor, me congelo.
F                      G
En mí cabeza, ya no te pienso.
F                         G
Entre tus brazos ya no me duermo.
C                       Em
En mi nariz, no te huelo.
  C                     Em
Y en mi lombríz, no te siento.
F                                   G
De tu caja de sorpresas, ya no me sorprendo.
F                                       G
De tu caja de herramientas ya no soy el dueño.
 C                Em       F           G
-Voy a engañar al corazón, solo para quedarme contigo.
C                 Em       F               G
Quiero encontrar una razón para quedarme dentro de tu abrigo.
F                             G
Si de bajo tu suela, yo ya no quepo.
F                             G
Si de bajo tu suela, yo ya no quepo.
C                    Em
En tu sillón, no me siento.
C                    Em
En tu rincón, ya no entro.
F                                               G
Si mi parte de nuestra naranja ya no te echa de menos.
F                                               G
Si resulta que ahora mi tormenta no quiere tus truenos.
C                 Em       F           G
-Voy a engañar al corazón, solo para quedarme contigo.
C                 Em       F               G
Quiero encontrar una razón para quedarme dentro de tu abrigo.
F                             G
Si de bajo tu suela, yo ya no quepo.
F                             G
Si de bajo tu suela, yo ya no quepo.

solo
1|------------------------||--------------------------||
2|------4^5-----0---------||----------4^5-----o-------||
3|-------------------3----||-1---3-----------------3--||
4|------------------------||--------------------------||
5|------------------------||--------------------------||
6|------------------------||--------------------------||

1|----------------------------------------------------||
2|------------7----555----444----22----0-------------||
3|-1---3--------------------------------------3-------||
4|----------------------------------------------------||
5|----------------------------------------------------||
6|----------------------------------------------------||

1|----------------------------------------------------||
2|------------7----555----444----22----0-------------||
3|-1---3--------------------------------------6-------||
4|----------------------------------------------------||
5|----------------------------------------------------||
6|----------------------------------------------------||

C                 Em       F           G
-Voy a engañar al corazón, solo para quedarme contigo.
C                 Em       F               G
Quiero encontrar una razón para quedarme dentro de tu abrigo.
C                 Em       F           G
-Voy a engañar al corazón, solo para quedarme contigo.
C                 Em       F               G
Quiero encontrar una razón para quedarme dentro de tu abrigo.
F                             G
Si de bajo tu suela, yo ya no quepo.
F                             G
Si de bajo tu suela, yo ya no quepo.


(Bueno espero les guste, el solo lo saque a oido,Saludos FARTHER!!!?

            
            
Suggest correction
Creating personal tab
Creating personal tab
You can edit any tab online and save it as your Personal.

You can edit, replace or remove any tab part or add personal notes – all changes will be seen only by you.

Personal tabs can be accessed anytime from any device, even offline.
Learn more »
Give kudos to tab author, rate the tab!
1 2 3 4 5
comments
print report bad tab
guest
Wanna post a correction for this tab? Suggest correction