Oops, an error
Loading. Please wait.

Que No Vuelvas tab

16 views 1 this week
no commentswrite comment
1 2 3 4 5
3 more votes to show rating
add to favorites
×
Save as Personal and add changes to this tab that will be seen only by you. Learn more ›
×
You can save this tab as Personal to edit and correct it or add notes. All changes will be seen only by you. Learn more »
launch autoscroll
font size
0
reset
how to read this tab
guitar tuner
edit
Autoscroll
slow
fast
+/-
esc
set tempo
stop
Intro:

e |--------------------------------------------|
B |--------------------------------------------|
G |-----9---9-----9---9-----9---9-----9---9----|
D |-7-7---7---7-7---7--------------------------|
A |---------------------7-7---7---7-7---7------|
E |--------------------------------------------|

D |------------------------------------9-7-6-7-|

e |--------------------------------------------|
B |--------------------------------------------|
G |-----9---9-----9---9-----9---9-----9---9----|
D |-7-7---7---7-7---7--------------------------|
A |---------------------7-7---7---7-7---7------|
E |--------------------------------------------|

D |------------------------------------9-7-6-7-|

e |--------------------------------------------|
B |--------------------------------------------|
G |-----9---9-----9---9-----9---9-----9---9----|
D |-7-7---7---7-7---7--------------------------|
A |---------------------7-7---7---7-7---7------|
E |--------------------------------------------|

D |------------------------------------9-7-6-7-|
    Ahora que a terminado te lamentas

e |--------------------------------------------|
B |--------------------------------------------|
G |-----9---9-----9---9-----9---9-----9---9----|
D |-7-7---7---7-7---7--------------------------|
A |---------------------7-7---7---7-7---7------|
E |--------------------------------------------|
    Escucho tus palabras se envenenan

e |--------------------------------------------|
B |--------------------------------------------|
G |-----11---11-----11---11----11--11----------|
D |-------------------------9-9--9----9--------|
A |-9-9----9----9-9----9-----------------------|
E |--------------------------------------------|
    Te envenenan         me envenenan

A5                                   E
Pero el tiempo ha pasado y todo quema
A5                                   E
Cada uno por su lado y sin problemas
F#5                    B5
Sin problemas no hay problemas

               A5               E
Y quiero aprender de la soledad
               A5               E
Y quiero poner mi mundo a girar
          F#5                 B5
Y que nunca vuelvas y que nunca vuelvas

e |--------------------------------------------|
B |--------------------------------------------|
G |-----9---9-----9---9-----9---9--------------|
D |-7-7---7---7-7---7--------------------------|
A |---------------------7-7---7---7------------|
E |--------------------------------------------|
  Que no vuelvas

Esta parte es el bajo pero es igual que la guitarra
A5                     E
Recuerdo haber perdido la cabeza
A5                       E
Y al irme no hacer ruido con la puerta
F#5                     B5
Esa puerta que ya no esta abierta

               A5               E
Y quiero aprender de la soledad
               A5               E
Y quiero poner mi mundo a girar
          F#5                 B5
Y que nunca vuelvas y que nunca vuelvas
               A5               E
Y quiero aprender de la soledad
               A5               E
Y quiero poner mi mundo a girar
          F#5                 B5
Y que nunca vuelvas y que nunca vuelvas

e |--------------------------------------------|
B |--------------------------------------------|
G |-----9---9-----9---9-----9---9-----9---9----|
D |-7-7---7---7-7---7--------------------------|
A |---------------------7-7---7---7-7---7------|
E |--------------------------------------------|

D |------------------------------------9-7-6-7-|
 Que no vuelvas

e |--------------------------------------------|
B |--------------------------------------------|
G |-----9---9-----9---9-----9---9-----9---9----|
D |-7-7---7---7-7---7--------------------------|
A |---------------------7-7---7---7-7---7------|
E |--------------------------------------------|

A |-9999999999999999999------------------------|
E |---------------------77777777777777777777---|

               A5               E
Y quiero aprender de la soledad
               A5               E
Y quiero poner mi mundo a girar
          F#5                 B5
Y que nunca vuelvas y que nunca vuelvas
               A5               E
Y quiero aprender de la soledad
               A5               E
Y quiero poner mi mundo a girar
          F#5                 B5
Y que nunca vuelvas y que nunca vuelvas

               A5               E
Y quiero aprender de la soledad
               A5               E
Y quiero poner mi mundo a girar
          F#5                 B5
Y que nunca vuelvas y que nunca vuelvas
               A5               E
Y quiero aprender de la soledad
               A5               E
Y quiero poner mi mundo a girar
          F#5                 B5
Y que nunca vuelvas y que nunca vuelvas

A5           E   Hasta el final
Que no vuelvas

G |-222222222222-2-4-2--111111111111-1-2-1-|
D |-------------2-------------------2------|

            
            
Suggest correction
Creating personal tab
Creating personal tab
You can edit any tab online and save it as your Personal.

You can edit, replace or remove any tab part or add personal notes – all changes will be seen only by you.

Personal tabs can be accessed anytime from any device, even offline.
Learn more »
Give kudos to tab author, rate the tab!
1 2 3 4 5
comments
print report bad tab
guest
Wanna post a correction for this tab? Suggest correction