Oops, an error
Loading. Please wait.

Sigo Esperandote tab

34 views 1 this week
no commentswrite comment
1 2 3 4 5
3 more votes to show rating
add to favorites
×
Save as Personal and add changes to this tab that will be seen only by you. Learn more ›
×
You can save this tab as Personal to edit and correct it or add notes. All changes will be seen only by you. Learn more »
launch autoscroll
font size
0
reset
how to read this tab
guitar tuner
edit
Autoscroll
slow
fast
+/-
esc
set tempo
stop

e---------------------------------------------------------------
B---------------------------------------------------------------
G---------------------------------------------------------------
D------------------5-----5-----9-----9-----7-----7--------------x3
A------5-----5---3---3-3---3-7---7-7---7-5---5-5---5------------
E----3---3-3---3------------------------------------------------
Se que soy lo peor
Y la tiendo a cagar
Por eso siempre intento disimular
Y perdí la noción de mentira y verdad
Pero yo siempre miento porque me gusta amar


     G             C             E          D
e---------------------------------------------------------------
B---------------------------------------------------------------
G------------------------------------------2-0-4-2--------------
D------5-4-5--------5-4-5-------2-5-4-5-------------------------
A-----------------3---------------------------------------------
E----3-----------------------------------------------------------


G    D
Nada
               E   C
Ya nada me importa
               G   D
Ya sé que tan solo tú
       C
Tú escuchas
    D
Yo espero

E        D         C     (C-D-E)
Que estaré esperándote
E        D         C     (D-D-D-D)
Y estaré esperándote

-Estribillo:
G
Que pase el tiempo
Y que no me veas
C
Que sea cierto y k no lo creas
D
Que yo este escondido y tú
           G
Tú sigas buscándome
G
Cuándo tú quieres
Nunca me encuentras
C
Cuando yo quiero
Siempre te alejas
D
Y a pesar de todo yo
            G
Yo sigo esperándote

Cada palabra de tu boca
Me esta dando la razón
Tu luchas yo quiero
Y estaré esperándote
Y estaré esperándote

Estribillo

Se que soy lo peor
Y la tiendo a cagar
Por eso siempre intento disimular
Y perdí la noción de mentira y verdad
Pero yo siempre miento porque me gusta amar

Y estaré esperándote
Y estaré esperándote

               e---------|
               B---------|
 Estribillo +  G---------|un puñao...
               D----5-4--|
               A---------|
               E--3------|

acaba con un punteo que puedes sacar facilmente, no tiene complicacion.
Suggest correction
Creating personal tab
Creating personal tab
You can edit any tab online and save it as your Personal.

You can edit, replace or remove any tab part or add personal notes – all changes will be seen only by you.

Personal tabs can be accessed anytime from any device, even offline.
Learn more »
Give kudos to tab author, rate the tab!
1 2 3 4 5
comments
print report bad tab
guest
Wanna post a correction for this tab? Suggest correction